:: Guitar & Bass Tabs Make Home Page
A B C D E F G H I J K L M N O P Q R S T U V W X Y Z #

  for    

On TABSPACE
Info About This Tab
Artist: Evanescence
Tab Type: Guitar
Rate This Tab!
-------------------------------------------------------------------------------
			     Heart-Shaped Box - Evanescence
-------------------------------------------------------------------------------
Tabbed by: brendamna
Email: brendamna@yahoo.com
Screen Name: brendamnalp7

Tuning: Half Step Down
Drop D


Well, yeah, my first tab and it sounds really cool.

The basic Chords (i know you know'em, just in case):

A  - 577655
F  - 133211
D  - 557775
D7 - 557575

Here we go.. 


Verse

  A       F        D             A       F       D       D7     D   
e|-----------------------------------------------------------------|
B|-----------------------------------------------------------------|
G|-----------------------------------------------------------------|
D|-----7-------3--------0----0-------7-------3-----4-4---4-----0---|
A|---7---7---3---3----0----0---0---7---7---3---3-------3---3-3-----|
E|-5-------1-------0-------------5-------1-------0---------------0-|


  A       F        D             A       F       D       D7     D   
e|-----------------------------------------------------------------|
B|-----------------------------------------------------------------|
G|-----------------------------------------------------------------|
D|-----7-------3--------0----0-------7-------3-----4-4---4-----0---|
A|---7---7---3---3----0----0---0---7---7---3---3-------3---3-3-----|
E|-5-------1-------0-------------5-------1-------0---------------0-|


  A       F        D             A       F       D       D7     D   
e|-----------------------------------------------------------------|
B|-----------------------------------------------------------------|
G|-----------------------------------------------------------------|
D|-----7-------3--------0----0-------7-------3-----4-4---4-----0---|
A|---7---7---3---3----0----0---0---7---7---3---3-------3---3-3-----|
E|-5-------1-------0-------------5-------1-------0---------------0-|


  A       F        D             A       F       D       D7     D   
e|-----------------------------------------------------------------|
B|-----------------------------------------------------------------|
G|-----------------------------------------------------------------|
D|-----7-------3--------0----0-------7-------3-----4-4---4-4-5-----|
A|---7---7---3---3----0----0---0---7---7---3---3-------3-----------|
E|-5-------1-------0-------------5-------1-------0-----------------|

Chorus

  A        F       D         D7  D A       F     D 
e|-5-5-----1-1-----5-5-5-5-5-5-5-5-5-5-----1-1-----5---5-5---5-5-5-|
B|-5-5-----1-1-----7-7-7-7-7-7-7-7-5-5-----1-1-----7---7-7---7-7-7-|
G|-6-6-----2-2-----7-7-7-7-7-5-5-7-6-6-----2-2-----7---7-7---7-7-7-|
D|-7-7-----3-3-----7-7-7-7-7-7-7-7-7-7-----3-3-----7---7-7---7-7-7-|
A|-7-7-----3-3-----5-5-5-5-5-5-5-5-7-7-----3-3-----5---5-5---5-5-5-|
E|-5-5-----1-1-----5-5-5-5-5-5-5-5-5-5-----1-1-----5---5-5---5-5-5-

  A        F       D         D7  D A       F     D 
e|-5-5-----1-1-----5-5-5-5-5-5-5-5-5-5-----1-1---5-5-5-5-5-5-5-5---|
B|-5-5-----1-1-----7-7-7-7-7-7-7-7-5-5-----1-1---7-7-7-7-7-7-7-7---|
G|-6-6-----2-2-----7-7-7-7-7-5-5-7-6-6-----2-2---7-7-7-7-7-7-7-7---|
D|-7-7-----3-3-----7-7-7-7-7-7-7-7-7-7-----3-3---7-7-7-7-7-7-7-7---|
A|-7-7-----3-3-----5-5-5-5-5-5-5-5-7-7-----3-3---5-5-5-5-5-5-5-5---|
E|-5-5-----1-1-----5-5-5-5-5-5-5-5-5-5-----1-1---5-5-5-5-5-5-5-5---|


  F                A               F                A  D       D7 D
e|-1-1-1-1-1-1-1-1-5---5-5---5-5-5-1-1-1-1-1-1-1-1(5)-5-5-5-5-5-5-5-|
B|-1-1-1-1-1-1-1-1-5---5-5---5-5-5-1-1-1-1-1-1-1-1(5)-7-7-7-7-7-7-7-|
G|-2-2-2-2-2-2-2-2-6---6-6---6-6-6-2-2-2-2-2-2-2-2(6)-7-7-7-7-5-5-7-|
D|-3-3-3-3-3-3-3-3-7---7-7---7-7-7-3-3-3-3-3-3-3-3(7)-7-7-7-7-7-7-7-|
A|-3-3-3-3-3-3-3-3-7---7-7---7-7-7-3-3-3-3-3-3-3-3(7)-5-5-5-5-5-5-5-|
E|-1-1-1-1-1-1-1-1-5---5-5---5-5-5-1-1-1-1-1-1-1-1(1)-5-5-5-5-5-5-5-|


Verse

  A       F        D             A       F       D       D7     D   
e|-----------------------------------------------------------------|
B|-----------------------------------------------------------------|
G|-----------------------------------------------------------------|
D|-----7-------3--------0----0-------7-------3-----4-4---4-----0---|
A|---7---7---3---3----0----0---0---7---7---3---3-------3---3-3-----|
E|-5-------1-------0-------------5-------1-------0---------------0-|


  A       F        D             A       F       D       D7     D   
e|-----------------------------------------------------------------|
B|-----------------------------------------------------------------|
G|-----------------------------------------------------------------|
D|-----7-------3--------0----0-------7-------3-----4-4---4-----0---|
A|---7---7---3---3----0----0---0---7---7---3---3-------3---3-3-----|
E|-5-------1-------0-------------5-------1-------0---------------0-|


  A       F        D             A       F       D       D7     D   
e|-----------------------------------------------------------------|
B|-----------------------------------------------------------------|
G|-----------------------------------------------------------------|
D|-----7-------3--------0----0-------7-------3-----4-4---4-----0---|
A|---7---7---3---3----0----0---0---7---7---3---3-------3---3-3-----|
E|-5-------1-------0-------------5-------1-------0---------------0-|


  A       F        D             A       F       D       D7     D   
e|-----------------------------------------------------------------|
B|-----------------------------------------------------------------|
G|-----------------------------------------------------------------|
D|-----7-------3--------0----0-------7-------3-----4-4---4-4-5-----|
A|---7---7---3---3----0----0---0---7---7---3---3-------3-----------|
E|-5-------1-------0-------------5-------1-------0-----------------|

Chorus

  A        F       D         D7  D A       F     D 
e|-5-5-----1-1-----5-5-5-5-5-5-5-5-5-5-----1-1-----5---5-5---5-5-5-|
B|-5-5-----1-1-----7-7-7-7-7-7-7-7-5-5-----1-1-----7---7-7---7-7-7-|
G|-6-6-----2-2-----7-7-7-7-7-5-5-7-6-6-----2-2-----7---7-7---7-7-7-|
D|-7-7-----3-3-----7-7-7-7-7-7-7-7-7-7-----3-3-----7---7-7---7-7-7-|
A|-7-7-----3-3-----5-5-5-5-5-5-5-5-7-7-----3-3-----5---5-5---5-5-5-|
E|-5-5-----1-1-----5-5-5-5-5-5-5-5-5-5-----1-1-----5---5-5---5-5-5-|


  A        F       D         D7  D A       F     D 
e|-5-5-----1-1-----5-5-5-5-5-5-5-5-5-5-----1-1---5-5-5-5-5-5-5-5---|
B|-5-5-----1-1-----7-7-7-7-7-7-7-7-5-5-----1-1---7-7-7-7-7-7-7-7---|
G|-6-6-----2-2-----7-7-7-7-7-5-5-7-6-6-----2-2---7-7-7-7-7-7-7-7---|
D|-7-7-----3-3-----7-7-7-7-7-7-7-7-7-7-----3-3---7-7-7-7-7-7-7-7---|
A|-7-7-----3-3-----5-5-5-5-5-5-5-5-7-7-----3-3---5-5-5-5-5-5-5-5---|
E|-5-5-----1-1-----5-5-5-5-5-5-5-5-5-5-----1-1---5-5-5-5-5-5-5-5---|


  F                A               F                A  D       D7 D
e|-1-1-1-1-1-1-1-1-5---5-5---5-5-5-1-1-1-1-1-1-1-1(5)-5-5-5-5-5-5-5-|
B|-1-1-1-1-1-1-1-1-5---5-5---5-5-5-1-1-1-1-1-1-1-1(5)-7-7-7-7-7-7-7-|
G|-2-2-2-2-2-2-2-2-6---6-6---6-6-6-2-2-2-2-2-2-2-2(6)-7-7-7-7-5-5-7-|
D|-3-3-3-3-3-3-3-3-7---7-7---7-7-7-3-3-3-3-3-3-3-3(7)-7-7-7-7-7-7-7-|
A|-3-3-3-3-3-3-3-3-7---7-7---7-7-7-3-3-3-3-3-3-3-3(7)-5-5-5-5-5-5-5-|
E|-1-1-1-1-1-1-1-1-5---5-5---5-5-5-1-1-1-1-1-1-1-1(1)-5-5-5-5-5-5-5-|


  F                A               F                A  D       D7 D
e|-1-1-1-1-1-1-1-1-5---5-5---5-5-5-1-1-1-1-1-1-1-1(5)-5-5-5-5-5-5-5-|
B|-1-1-1-1-1-1-1-1-5---5-5---5-5-5-1-1-1-1-1-1-1-1(5)-7-7-7-7-7-7-7-|
G|-2-2-2-2-2-2-2-2-6---6-6---6-6-6-2-2-2-2-2-2-2-2(6)-7-7-7-7-5-5-7-|
D|-3-3-3-3-3-3-3-3-7---7-7---7-7-7-3-3-3-3-3-3-3-3(7)-7-7-7-7-7-7-7-|
A|-3-3-3-3-3-3-3-3-7---7-7---7-7-7-3-3-3-3-3-3-3-3(7)-5-5-5-5-5-5-5-|
E|-1-1-1-1-1-1-1-1-5---5-5---5-5-5-1-1-1-1-1-1-1-1(1)-5-5-5-5-5-5-5-|





| /  slide up
| \  slide down
| h  hammer-on
| p  pull-off
| ~  vibrato
| +  harmonic
| x  Mute note
===============================================================================

I think its ok..

so, now with the lyrics.




A    F       D             A    F     D  D7 D
She eyes me like a pisces when I am weak

A             F       D                     A  F     D  D7 D
I've been locked inside your Heart-Shaped box for weeks

A            F     D              A    F     D  D7 D
I've been drawn into your magnet tar pit trap

A       F       D               A    F        D  
I wish I could eat your cancer when you turn back 


A     F    D                  D7  D   A     F     D                          A
Hey! Wait!  I've got a new complaint Forever in debt to your priceless advice

      F    D                  D7  D   A     F     D                         F   A
Hey! Wait!  I've got a new complaint Forever in debt to your priceless advice

          F (A) D D7 D
Your advice


(yeah, the same)


Meat-eating orchids forgive no one just yet


Cut myself on angel's hair and baby's breath


Broken hymen of your highness I'm left black


Throw down your umbilical noose so I can climb right back





A     F    D                  D7  D   A     F     D                          A
Hey! Wait!  I've got a new complaint Forever in debt to your priceless advice

      F    D                  D7  D   A     F     D                         F   A
Hey! Wait!  I've got a new complaint Forever in debt to your priceless advice

        F   A         F   A
Your advice   your advice  

          F (A)  D D7 D
Your advice





Share "Heart-shaped Box" by Evanescence


TOP 10 TABS

FRESH NEW TABS

ALL ARTISTS
artist wiki

mp3bear.com
song lyrics / contact us / privacy policy / tabspace toolbar
Copyright 2004 - 2014 TabSpace.com - All Rights Reserved.
song: heart-shaped box guitar tabs by evanescence

0.016