:: Guitar & Bass Tabs Make Home Page
A B C D E F G H I J K L M N O P Q R S T U V W X Y Z #

  for    

On TABSPACE
Info About This Tab
Artist: Tokio Hotel
Tab Type: Guitar
Rate This Tab!
-------------------------------------------------------------------------------
			     Heilig  Tokio Hotel
-------------------------------------------------------------------------------
Tabbed by: silversideupx
Email:

Tuning: EADGBE

INTRO
e|---------------------------------------------------------------------------|
B|---------------------------------------------------------------------------|
G|-----------------------------6------------------------------4--------------|
D|-----6-----------------------6--------------6---------------4--------------|
A|-----6-----------------------6--------------6---------------4--------------|
E|-----4-----------------------4--------------4---------------2--------------|

VERSE
e|---------------------------------------------------------------------------|
B|--------------------------------------------2---------------9--------------|
G|-----------------------------4--------------3---------------8--------------|
D|-----6-----------------------4--------------4---------------8--------------|
A|-----6-----------------------4--------------4---------------6--------------|
E|-----4-----------------------2--------------2---------------6--------------| (x3)

e|---------------------------------------------------------------------------|
B|--------------------------------------------9------------------------------|
G|-----------------------------4--------------8---------------1--------------|
D|-----6-----------------------4--------------8---------------2--------------|
A|-----6-----------------------4--------------6---------------2--------------|
E|-----4-----------------------2--------------6------------------------------|

REFRAIN
e|---------------------------------------------------------------------------|
B|--------------------------------------------2---------------9--------------|
G|-----------------------------4--------------3---------------8--------------|
D|-----6-----------------------4--------------4---------------8--------------|
A|-----6-----------------------4--------------4---------------6--------------|
E|-----4-----------------------2--------------2---------------6--------------|

e|---------------------------------------------------------------------------|
B|--------------------------------------------2---------------9--------------|
G|-----------------------------1--------------3---------------8--------------|
D|-----6-----------------------2--------------4---------------8--------------|
A|-----6-----------------------2--------------4---------------6--------------|
E|-----4--------------------------------------2---------------6--------------| (x2)

PONT
e|---------------------------------------------------------------------------|
B|------------------------------------------------------2-----------2--------|
G|-----6-----------------------6---------------4--------3-----4-----3--------|
D|-----6------------6----------6--------6------4--------4-----4-----4--------|
A|-----6------------6----------6--------6------4--------4-----4-----4--------|
E|-----4------------4----------4--------4------2--------2-----2-----2--------| (x2)

e|-----------------------------------------------------------------------4---|
B|-----2-----------------------9--------9------2---------------------9---4---|
G|-----4------------4----------8--------8------4------4----6---------8---4---|
D|-----4------------4----------8--------8------4------4----6-----6---8---3---|
A|-----2------------4----------6--------6------2------4----6-----6---6-------|
E|-----2------------2----------6--------6------2------2----4-----4---6-------|

e|---------------------------------------------------------------------------|
B|-------------------9-------------------------------------------------------|
G|----------4--------8---------1---------1-----------------------------------|
D|---6------4--------8---------2---------2-----------------------------------|
A|---6------4--------6---------2---------2-----------------------------------|
E|---4------2--------6-------------------------------------------------------|

REFRAIN
e|---------------------------------------------------------------------------|
B|--------------------------------------------2---------------9--------------|
G|-----------------------------4--------------3---------------8--------------|
D|-----6-----------------------4--------------4---------------8--------------|
A|-----6-----------------------4--------------4---------------6--------------|
E|-----4-----------------------2--------------2---------------6--------------|

e|---------------------------------------------------------------------------|
B|--------------------------------------------2---------------9--------------|
G|-----------------------------1--------------3---------------8--------------|
D|-----6-----------------------2--------------4---------------8--------------|
A|-----6-----------------------2--------------4---------------6--------------|
E|-----4--------------------------------------2---------------6--------------| (x2)

OUTRO
e|---------------------------------------------------------------------------|
B|----------------------------------2--------9-------2-----------9-----------|
G|------------------4---------------3--------8-------3-----1-----8-----------|
D|-----6------------4---------------4--------8-------4-----2-----8-----------|
A|-----6------------4---------------4--------6-------4-----2-----6-----------|
E|-----4------------2---------------2--------6-------2-----------6-----------|



Share "Heilig" by Tokio Hotel


TOP 10 TABS

FRESH NEW TABS

ALL ARTISTS
artist wiki

mp3bear.com
song lyrics / contact us / privacy policy / tabspace toolbar
Copyright 2004 - 2014 TabSpace.com - All Rights Reserved.
song: heilig guitar tabs by tokio hotel

0.013