:: Guitar & Bass Tabs Make Home Page
A B C D E F G H I J K L M N O P Q R S T U V W X Y Z #

  for    

On TABSPACE
Info About This Tab
Artist: Zebrahead
Tab Type: Bass
Rate This Tab!
-------------------------------------------------------------------------------
The Hell That is My Life - Zebrahead
-------------------------------------------------------------------------------

g|---------------------------------|
d|-x-x---x-x-x---x-x-x---x-x-x---x-|
a|-----x-------x-------x-------x---|
e|---------------------------------|
Part #1
x=Rhytmus
g|-------------------|
d|--2x--9x--12x--7x--|
a|-------------------|
e|-------------------|
Part #2
g|-----------------------------------|
d|---2-2-----2-2-----2-2-----2-2-4---|
a|--------2-------2-------2----------|
e|-----------------------------------|
g|-----------------------------------|
d|-----------------------------------|
a|---2-2-----2-2-----2-2-----2-2-4---|
e|--------2-------2-------2----------|
g|-----------------------------------|
d|-----------------------------------|
a|---5-5-----5-5-----5-5-----5-5-7---|
e|--------5-------5-------5----------|
g|-----------------------------------|
d|-----------------------------------|
a|-----------------------------------|
e|---5-5--0--5-5--0--5-5--0--5-5-5---|
Part #3
y=play 8 times
g|------------------------|
d|------------------------|
a|-----2y-----------------|
e|---------4y--2y--0y-----|
Part #4
y=play 8 times
g|------------------------|
d|------------------------|
a|---2y-------------------|
e|-------4y--2y--0y--2y---|
Part #5
y=play 8 times
g|----------------------------|
d|----------------------------|
a|---2y--------------0y--2y---|
e|-------4y--2y--3y-----------|
Part #6
g|-------------|
d|-------------|
a|-------------|
e|---0--0--0---|
*order*
Part #1		1x
Part #2		3x	
Part #6		1x
Part #7		1x
Part #2		4x		
Part #6		1x
Part #7		1x
Part #2		4x
Part #6		1x		
Part #6		4x
Part #8		1x


Share "Hell That Is My Life" by Zebrahead


TOP 10 TABS

FRESH NEW TABS

ALL ARTISTS
artist wiki

mp3bear.com
TabSpace.com / contact us / privacy policy / tabspace toolbar
Copyright 2004 - 2016 TabSpace.com - All Rights Reserved.
song: hell that is my life bass tabs by zebrahead

0.006