:: Guitar & Bass Tabs Make Home Page
A B C D E F G H I J K L M N O P Q R S T U V W X Y Z #

  for    

On TABSPACE
Info About This Tab
Artist: Margot And The Nuclear So And Sos
Tab Type: Guitar
Rate This Tab!
standard tuning


This is the beginning part for the piano....its in a lower key and not every note is 
but you can play the lead part with this....

e---------------------------------------------------------------------|
b-------1--------0------1-------0------1--------0-----1---------0-----|
g---------2---------------2---------------2--------------2------------|
d-----2--------2------2-------2------3--------0-----3--------0--------|
a---0---------------0-------------------------------------------------|
e------------0--------------0------1--------3-----1--------3----------|


starts when the singing starts....

e---------------------------------------------------------------------------------|
b-------------------------1-----1--0-------------1--0-----------------------------|
g----2--0-----0------2-------------------0-----------------0----------------------|
d-----------2-----2---------2---------3------2---------3------2------X2-----------|
a---------------------------------------------------------------------------------|
e---------------------------------------------------------------------------------|

e--------------------------------------------------------------------------------|
b-----1------------------0----------1-------------1-------------------0----------|
g---------2--2---0---------------------2-------------2-----------0---------------|
d---------------------0----------2-------------2--------------2------------------|
a-----------------------------0-------------0------------------------------------|
e-----------------------------------------------------------0--------------------|

e--------------------------------------------------------------0------------------|
b----1--0-------------1--0-------------------------1--0--1--0----1----------------|
g--------------0-----------------0------------------------------------------------|
d-----------3------2---------3------2---------------------------------------------|
a---------------------------------------------------------------------------------|
e---------------------------------------------------------------------------------|

back to the piano part from the beginning

then when he sings..."mysterious bruises, whiskey smile....."

e------------------------------------------------------------------------|
b-------------------------1-----1--0------0---0----1--0--0--0------------|
g----2--0-----0------2-----------------0---0---0--------0--0--0----------|
d-----------2-----2---------2--------------------------------------------|
a------------------------------------------------------------------------|
e------------------------------------------------------------------------|

"and I am your monkey stay a while...."

e---------------------------------------------------------------------------|
b-------------------------1-----1--0------0---0----1--0--0---0--------------|
g----2--0-----0------2-----------------0---0---0--------0--0----------------|
d-----------2-----2---------2-----------------------------------------------|
a---------------------------------------------------------------------------|
e---------------------------------------------------------------------------|

e--------------------------------------------------------------------------------|
b-----1------------------0----------1-------------1-------------------0----------|
g---------2--2---0---------------------2-------------2-----------0---------------|
d---------------------0----------2-------------2--------------2------------------|
a-----------------------------0-------------0------------------------------------|
e-----------------------------------------------------------0--------------------|

e---------------------------------------------------------------0-----------------|
b----1--0-------------1--0-------------------------1--0--1--0-----1---------------|
g--------------0-----------------0------------------------------------------------|
d-----------3------2---------3------2---------------------------------------------|
a---------------------------------------------------------------------------------|
e---------------------------------------------------------------------------------|

back to piano part from beginning

then....

e--------------------------------------------------------------------------------|
b-----1------------------0----------1-------------1-------------------0----------|
g---------2--2---0---------------------2-------------2-----------0---------------|
d---------------------0----------2-------------2--------------2------------------|
a-----------------------------0-------------0------------------------------------|
e-----------------------------------------------------------0--------------------|


e--------------------------------------------------------------------------------|
b-----1------------------0----------1-------------1-------------------0----------|
g---------2--2---0---------------------2-------------2-----------0---------------|
d---------------------0----------2-------------2--------------2------------------|
a-----------------------------0-------------0------------------------------------|
e-----------------------------------------------------------0--------------------|


e-----------------------1--0--------------------------------0-------0-----|
b----1--0-------------------------0-------------1--0--1--0----1----1------|
g----------------0--------------------------------------------------2-----|
d------------3------2--------------------X4-------------------------2-----|
a------------------------------0------------------------------------0-----|
e-------------------------------------------------------------------x-----|


Share "Hello Vagina" by Margot And The Nuclear So And Sos


TOP 10 TABS

FRESH NEW TABS

ALL ARTISTS
artist wiki

mp3bear.com
song lyrics / contact us / privacy policy / tabspace toolbar
Copyright 2004 - 2014 TabSpace.com - All Rights Reserved.
song: hello vagina guitar tabs by margot and the nuclear so and sos

0.013