:: Guitar & Bass Tabs Make Home Page
A B C D E F G H I J K L M N O P Q R S T U V W X Y Z #

  for    

On TABSPACE
Info About This Tab
Artist: 30 Seconds To Mars
Tab Type: Bass
Difficulty: novice
Rate This Tab!
-------------------------------------------------------------------------------
HERO - 30 SECONDS TO MARS
-------------------------------------------------------------------------------

Tabbed By : chota1993

Tuning: E A D G

Intro: 0:16(After guitar plays twice)
G|---------------------|
D|---------------------|
A|---------------------|
E|--/4*--/7-\2-/9--0-/2|

Verse: 0:32(Soft stumming)
G|---------------------|
D|---------------------|X2
A|---------------------|
E|-4(x16)--------------|

0:48 
G|----------------------------|
D|----------------------------|X4
A|----------------------------|
E|-4-4-4-4-5--4-4-4-4-4-4-5--5|

Chorus: 1:02 
G|---------------------|
D|---------------------|X2
A|---------------------|
E|--/4*--/7-\2-/9--0-/2|

1:19
G|--------------------------------|
D|--------------------------------|
A|--------------------------------|
E|-44-(x4)-55-(x4)-00-(x4)-66-(x4)|

Verse: 1:27(Soft stumming)
G|---------------------|
D|---------------------|X4
A|---------------------|
E|-4(x16)--------------|

1:50 
G|----------------------------|
D|----------------------------|X4
A|----------------------------|
E|-4-4-4-4-5--4-4-4-4-4-4-5--5|

Chorus: 2:06 
G|--------------------|   G|---------|
D|--------------------|X2 D|---------|
A|--------------------|   A|---------|
E|--4*--/7-\2-/9--0-/2|   E|-12-11-9-|

G|------------------|
D|------------------|X2
A|------------------|
E|4*--/7-\2-/9--0-/2|

2:38
G|--------------------------------|
D|--------------------------------|X2
A|--------------------------------|
E|-44-(x4)-55-(x4)-00-(x4)-66-(x4)|

2:54-2:57 (Break)

2:58
Outro (normal strumming)
G|----------------------------|
D|----------------------------|X(till Song ends)
A|----------------------------|
E|-4-4-4-4-5--4-4-4-4-4-4-5--5|

Please rate! ;)


Share "Hero" by 30 Seconds To Mars


TOP 10 TABS

FRESH NEW TABS

ALL ARTISTS
artist wiki

mp3bear.com
song lyrics / contact us / privacy policy / tabspace toolbar
Copyright 2004 - 2014 TabSpace.com - All Rights Reserved.
song: hero bass tabs by 30 seconds to mars

0.026