:: Guitar & Bass Tabs Make Home Page
A B C D E F G H I J K L M N O P Q R S T U V W X Y Z #

  for    

On TABSPACE
Info About This Tab
Artist: Paramita
Tab Type: Guitar
Rate This Tab!
Hiling  - Paramita

[Distorted lahat ng tabs, pinasimple ko lang lahat ng tabs,hirap eh]
Intro: C9-Dsus-Em-Dsus
                                         (3x)
e |--------------------------------------------|
B |---7-8-10-888---7-8-10-888---7-8-10-888-7---|
G |--------------------------------------------|
D |--------------------------------------------|
A |--------------------------------------------|
E |--------------------------------------------|
Verse 1: C9-Dsus-Em-Dsus [may guitars pero mahina lang]
Nahihirapan na ang aking isip Nauubusan na ng sasabihin sa iyo
                                                                      (2x)
e |------------------------------------------|
B |---77—777---87—88---101010101010---7h88---|
G |------7-----------7-----------------------|
D |------------------------------------------|
A |------------------------------------------|
E |------------------------------------------|
Nanlalamig na ba ang pag-ibig mo sa akin… [Distorted na]
                                  (2x)
e |-------------------------|
B |---8-7-----8-7-----8-7---|
G |-------7-------7-------7-|
D |-------------------------|
A |-------------------------|
E |-------------------------|
   Em           Em                     C9             C9
giliw…           (1st adlib) [Distorted] [sana po makuha nyo 2,di ko mkuha ung isa…]
e |----------------------------------------------------10----|
B |---555555555555---7777---888888888888---------------------|
G |----------------------------------------------------------|
D |----------------------------------------------------------|
A |----------------------------------------------------------|
E |----------------------------------------------------------|
C9-Dsus-Em-Dsus
                         (3x)
e |-----------------------------------------|
B |---8-7-5--------------------8-7----------|
G |----------777h9-7--------------7---------|
D |-----------------------------------------|
A |-----------------------------------------|
E |-----------------------------------------|
Verse 2: C9-Dsus-Em-Dsus
[ung tabs pareho lang nung unang verse pero 3x, mahina lang din ang strum]
Nalilito ako Nais kong sagipin ang ating nalulunod na pag-ibigs
Ngunit handa akong palayain ka                      (3x)
e |-------------------------------------------------------|
B |---77—777---87—88---101010101010---7h88----------------|
G |------7-----------7------------------------------------|
D |-------------------------------------------------------|
A |-------------------------------------------------------|
E |-------------------------------------------------------|
Chorus: [Distorted] C9-Dsus-Em-Dsus [wala munang tabs toh]
Kung ito ang iyong hiling
Gaano man kasakit sa akin ibibigay sa iyo
Ang tanging pakiusap lang
Huwag mo akong kalimutan
Kay rami nang nagdaan na pagsubok sa ating pag-ibig
[sa part na toh… may adlib na.. 7x yan]
Kakayanin pa kayang mabawa pa ang mga nasabi na masasakit na salita Oh… Oh…
e |--------------------|
B |---7-8-10-888-------|
G |--------------------|
D |--------------------|
A |--------------------|
E |--------------------|
(2nd adlib)
e |---1010-88-77—55-----------|
B |---------------------------|
G |---------------------------|
D |---------------------------|
A |---------------------------|
E |---------------------------|

e |-----------------------------------------------------------|
B |-------8h10s12--10------8h10-8-------------77h88-77--------|
G |--7h9----------------7h9---------4h5s7s9-7-------------77--|
D |-----------------------------------------------------------|
A |-----------------------------------------------------------|
E |-----------------------------------------------------------|


e|-------10-8-7------10-8-7-------------------------------------------|
B|-----8---------10-8--------10-8-7h8s10s12-10s8--77h88-77------------|
G|-7h9-------------7----------------------------------------------77--|
D|--------------------------------------------------------------------|
A|--------------------------------------------------------------------|
E|--------------------------------------------------------------------|
C9-Dsus-Em-Dsus [walang drums, soft lang…]
Kung ito ang iyong hiling gaano man kasakit sa akin ibibigay sa’yo
e |------------------------------------|
B |---8-77---8-77---7h88---7h88--------|
G |------------------------------------|
D |------------------------------------|
A |------------------------------------|
E |------------------------------------|
[papasok tong tabs na toh, sa pangalawang nanlalamig na ba ang pag-ibig mo?]
Nanlalamig na ba ang pag-ibig mo? [Distorted] [Guitar 1 pa lang,hanggang mag-ending]
e |------------------------------------|
B |---8-7-5-33h5s8-7-5-33h5------------|
G |------------------------------------|
D |------------------------------------|
A |------------------------------------|
E |------------------------------------|
Ending: C9-----------------------------|Dsus-Em-Dsus [Guitar 1 with Guitar 2]
Guitar 2: [kahit wala na nito]
e |---15-14-12-1010h12s15-14-12-1010h12--------------|
B |--------------------------------------------------|
G |--------------------------------------------------|
D |--------------------------------------------------|
A |--------------------------------------------------|
E |--------------------------------------------------|
Guitar 3: [may maririnig kayo na gn2 sa last part ng song]

|----101010101010101010101010------------------|
|----------------------------------------------|
|----------------------------------------------|
|----------------------------------------------|
|----------------------------------------------|
|----------------------------------------------|

then meron pa nito.. but optional lahat.. kng anu nlng ung maganda hehe
|-------10-9-8-9----|
|-------------------|
|-------------------|
|-------------------|
|-------------------|
|-------------------|

Outro : C9-Dsus lang tapos e2 na… [chords n2: Am-B-C-D-E-F#m… power chords lahat except 
                           e2 pa ung isa..
e |----------------------|  [distorted po] |------------------------------------------------|
B |----------------------|                 |------------------------------------------------|
G |----------------------|                 |--2-4-5-7-9-11-9--------------------------------|
D |----------------------|                 |------------------------------------------------|
A |---0-2-3-5-7-9-7------|                 |------------------------------------------------|
E |----------------------|                 |------------------------------------------------|

ang end nya is E..


Share "Hiling" by Paramita


TOP 10 TABS

FRESH NEW TABS

ALL ARTISTS
artist wiki

mp3bear.com
song lyrics / contact us / privacy policy / tabspace toolbar
Copyright © 2004 - 2014 TabSpace.com - All Rights Reserved.
song: hiling guitar tabs by paramita

0.01