:: Guitar & Bass Tabs Make Home Page
A B C D E F G H I J K L M N O P Q R S T U V W X Y Z #

  for    

On TABSPACE
Info About This Tab
Artist: Margot And The Nuclear So And Sos
Tab Type: Guitar
Rate This Tab!
***PLEASE SUBMIT ONLY THIS ONE...THIS IS THE BEST MOST UPDATED VERSION***
tHERE WILL BE NO OTHERS...I PROMISE....AND THANK YOU

HIP HIP HOORAY

tuned half step down---------should be pretty spot on

intro

e---2--2--2---2----------2------2---2--2--------------|
b----3-3----3-3------------3----3----3-3--------------|
g------2----------------------0h2---------------------|
d--0-----2----2-2s4-0-0------------2---2--------------|
a-----------------------------------------------------|
E-----------------------------------------------------|

verse

e---2---2---2---2-----------------------|
b-----3-3-----3-3-----------------------|
g-------2-------------------------------|
d--0-------2----2-----------------------| REPEAT
a---------------------------------------|
E---------------------------------------|

chorus

e--2--2--3--2--2--3--3--3-----3--2-----3--------|
b--3--3--3--3--3--3--3--3--3--3--3--3--3--------|
g--4--2-----4--2-----------2---------2----------|
d--4--------4--------2------------2-------------|
a--2-----2--2-----2--2--2--x--2--2--x--2--------|
E--x-----3--x-----3--0--3--2--3--0--2--3--------|

fill

e------------0--------------------------------|
b--3s5--5--5---5s7--7--7----------------------|
g---------------------------------------------|
d---------------------------------------------|
a---------------------------------------------|
E---------------------------------------------|

2nd fill

e--3----------5--------------------------------|
b--3----------5--------------------------------|
g--4----------6--------------------------------|
d--5-slide to--7-------------------------------|
a--5----------7--------------------------------|
E--3----------5--------------------------------|


thats it, just figure out the order you got it...


Share "Hip Hip Hooray" by Margot And The Nuclear So And Sos


TOP 10 TABS

FRESH NEW TABS

ALL ARTISTS
artist wiki

mp3bear.com
song lyrics / contact us / privacy policy / tabspace toolbar
Copyright 2004 - 2014 TabSpace.com - All Rights Reserved.
song: hip hip hooray guitar tabs by margot and the nuclear so and sos

0.01