:: Guitar & Bass Tabs Make Home Page
A B C D E F G H I J K L M N O P Q R S T U V W X Y Z #

  for    

On TABSPACE
Info About This Tab
Artist: Wasp
Tab Type: Guitar
Difficulty: novice
Rate This Tab!
----------------------------------------------------------------------------
                       HOLD ON TO MY HEART - Wasp
----------------------------------------------------------------------------
Tabbed by: Manolis T.

Email:mtegoswasp@yahoo.gr
                         


Tuning: 1/2 STEP DOWN
 
INTRO/VERSE/SOLO:                   
   E     A         E       E         ?    Fm#    Fm#   ?     Fm#
e|--------------------------------------------------------------|
B|-------------------------5------------------------------------|
G|-4-----2---------4-------4---------4-----2-----2----4-4-----2-|
D|-2-----2----2----2-------2----2----2-----4-----4----2-2-----4-|
A|-0--0--0--0---0--0-0--0--0--0---0--4-----4-----4----4-4-----4-|
E|--------------------------------------2-----2----2-------2----|

BASS ARRANGED FOR GUITAR

e|---------------|
B|---------------|
G|---------------|
D|---------------|
A|-----0-2-0---0-|
E|-0-2-------2---|

Pre-Chorus:
        Bm       Bm       E    E
So just hold me, hold me, hold me
e|------4--------4---------------|
B|------5--------5---------------|
G|------4--------4--------1----1-|
D|------4--------4--------2----2-|
A|------2--------2--------2----2-|
E|------------------------0----0-|

Chorus: Lead guitar (The rhythm guitar plays the same with an acoustic guitar)

(DISTORTION)                                        
Hold on to my heart, to my heart, to me
e|-------------------------------------------|
B|-------------------------------------------|
G|------------2------------------------------|
D|------------2----------------------------4-|
A|------------0----------------------------4-|
E|-----------------------------------------2-|

                                    
Hold on to my heart, to my heart, to me
e|-------------------------------------------|
B|-------------------------------------------|
G|------------2------------------------------|
D|------------2----------------------------4-|
A|------------0----------------------------4-|
E|-----------------------------------------2-|                                                 

And oh no, don't let me go cause all I am 
e|-------------------------------------------|
B|-------------------------------------------|
G|--7-----9--------------------------2-------|
D|--7-----9--------------------------2-------|
A|--5-----7--------------------------0-------|
E|-------------------------------------------|

You hold in your hands, and hold me
e|-----------------------------------------|
B|-----------------------------------------|
G|--------------------------7-----------9--|
D|---------------4----------7-----------9--|
A|---------------4----------5-----------7--|
E|---------------2-------------------------|

And I'll make it through the night
e|------------------------------|
B|------------------------------|
G|------------------------------|
D|---------------------------4--|
A|---------------------------4--|
E|---------------------------2--|

And I'll be alright, hold on, hold on to my heart 
e|------------------------------------------------|
B|------------------------------------------------|
G|------------7------7-------9--------------2-----|
D|------------7------7-------9--------------2-----|
A|------------5------5-------7--------------0-----|
E|------------------------------------------------|


| /  slide up
| \  slide down
| h  hammer-on
| p  pull-off
| ~  vibrato
| +  harmonic
| x  Mute note
============================================================================


Share "Hold On To My Heart" by Wasp


TOP 10 TABS

FRESH NEW TABS

ALL ARTISTS
artist wiki

mp3bear.com
song lyrics / contact us / privacy policy / tabspace toolbar
Copyright 2004 - 2014 TabSpace.com - All Rights Reserved.
song: hold on to my heart guitar tabs by wasp

0.01