:: Guitar & Bass Tabs Make Home Page
A B C D E F G H I J K L M N O P Q R S T U V W X Y Z #

  for    

On TABSPACE
Info About This Tab
Artist: 65daysofstatic
Tab Type: Guitar
Difficulty: intermediate
Rate This Tab!
-----------------------------------------------------------------------------
			     Hole - 65daysofstatic
-----------------------------------------------------------------------------
This tab is just from me listening to the song and working it out on guitar one stage at 
time, naturally there will be some bits missing but i think it sounds alright.

Tabbed by: Tim West
Email: tim17west@hotmail.com

Tuning: Standard

|-Verse-|
Guitar 1 RepeatX4
0:00 - 0:28
e|---------------------------------------------------------------------------|
B|---------------------------------------------------------------------------|
G|-9--9--9--9--9--9--9-11-12-------------------------------------------------|
D|---------------------------------------------------------------------------|
A|-7--7--7--7--7--7--7--9-10-------------------------------------------------|
E|---------------------------------------------------------------------------|

Guitar 2 RepeatX2
0:14 - 0:28
e|---(7)(7)(7)(7)---(7)(7)(7)(7)--(7)-(7)--(7)(7)(7)(7)----------------------|
B|---(7)(7)(7)(7)---(7)(7)(7)(7)--(7)-(7)--(7)(7)(7)(7)----------------------|
G|-9-(7)(7)(7)(7)-9-(7)(7)(7)(7)-9(7)9(7)9-(7)(7)(7)(7)----------------------|
D|-9--------------9--------------9---9---9-----------------------------------|
A|-7--------------7--------------7---7---7-----------------------------------|
E|---------------------------------------------------------------------------|

|-Chorus-|
Guitar 1 RepeatX2
0:29
e|---------------------------------------------------------------------------|
B|---------------------------------------------------------------------------|
G|-9---9--9-11--12--12-12-12-11/14-------------------------------------------|
D|---------------------------------------------------------------------------|
A|-7---7--7-9---10--10-10-10-9/-12-------------------------------------------|
E|---0-----------------------------------------------------------------------|

Guitar 2 RepeatX2
0:32
e|---------------------------------------------------------------------------|
B|---------------------------------------------------------------------------|
G|---------------------------------------------------------------------------|
D|---------------5---5--5--5--4--5-------------------------------------------|
A|---------------5---5--5--5--4--5-------------------------------------------|
E|---------------3---3--3--3--2--3-------------------------------------------|

Guitar 1
0:44
e|---------------------------------------------------------------------------|
B|---------------------------------------------------------------------------|
G|--------------12--12-12-12-11/14-------------------------------------------|
D|---------------------------------------------------------------------------|
A|--------------10--10-10-10-9/-12-------------------------------------------|
E|---------------------------------------------------------------------------|

Guitar 2 RepeatX2
0:44
e|---------------------------------------------------------------------------|
B|---------------------------------------------------------------------------|
G|---------------------------------------------------------------------------|
D|-9\-9\-9\------5---5--5--5--5--7-------------------------------------------|
A|-7\-7\-7\-7\5--5---5--5--5--5--7-------------------------------------------|
E|---------------3---3--3--3--3--5-------------------------------------------|

|-Breakdown-|
Guitar 1 RepeatX2
0:58
e|--7777-7777-7777-7777-7777-7777-7777-7777----------------------------------|
B|--7777-7777-7777-7777-7777-7777-7777-7777----------------------------------|
G|--9999-9999-9999-9999-7777-7777-7777-7777----------------------------------|
D|--9999-9999-9999-9999-9999-9999-9999-9999----------------------------------|
A|---------------------------------------------------------------------------|
E|-7----7----7----7----7-----7---7----7--------------------------------------|

Guitar 2
1:06
e|---------------------------------------------------------------------------|
B|------------------------------------10-8-8-8-----8-8-8--10-8-8-8-----8-8-8-|
G|--------------------------------------------9-9-9---------------9-9-9------|
D|---------------------------------------------------------------------------|
A|---------------------------------------------------------------------------|
E|---------------------------------------------------------------------------|

Guitar 1 Repeat each set chord 4 times
1:14
e|-7--7-7-7---7--7-7-7---7--7-7-7---77777777---------------------------------|
B|-10-101010--8--8-8-8---8--8-8-8---88888888---------------------------------|
G|-9--9-9-9---9--9-9-9---9--9-9-9---99999999---------------------------------|
D|-7--7-7-7---7--7-7-7---10-101010--99999999---------------------------------|
A|-7--7-7-7---7--7-7-7---7--7-7-7---77777777---------------------------------|
E|---------------------------------------------------------------------------|

Guitar 2 Pick each notes 6 times
1:26
e|----------------------------------3-5-7-8-10-12-14-15----------------------|
B|---------------------------------------------------------------------------|
G|---------------------------------------------------------------------------|
D|---------------------------------------------------------------------------|
A|---------------------------------------------------------------------------|
E|---------------------------------------------------------------------------|

|-Bridge-|
Guitar 1
1:29
e|---------------------------------------------------------------------------|
B|---------------------------------------------------------------------------|
G|---------------------------------------------------------------------------|
D|---------------------------------------------------------------------------|
A|-10-10-10-10-10-9-7--------------------------------------------------------|
E|---------------------------------------------------------------------------|

Guitar 2
1:38
e|---------------------------------------------------------------------------|
B|----------------------------------12-13-15---------------------------------|
G|--11-11-11-12--12-11-12-14-14-11-----------11------------------------------|
D|---------------------------------------------------------------------------|
A|---------------------------------------------------------------------------|
E|---------------------------------------------------------------------------|

Guitar 1
1:44
e|---------------------------------------------------------------------------|
B|---------------------------------------------------------------------------|
G|-9-12-9-14-1112-17-16-11--9------------------------------------------------|
D|---------------------------------------------------------------------------|
A|-7-10-7-12-9-10-15-14-9---7------------------------------------------------|
E|---------------------------------------------------------------------------|

Guitar 2
1:44
e|---------------------------------------------------------------------------|
B|--------10-------13-12-----------------------------------------------------|
G|-9-12-9----11-12-------11-9------------------------------------------------|
D|---------------------------------------------------------------------------|
A|---------------------------------------------------------------------------|
E|---------------------------------------------------------------------------|

Guitar 1
2:02
e|-0-------------------------------------------------------------------------|
B|-8-------------------------------------------------------------------------|
G|-9-------------------------------------------------------------------------|
D|-9-------------------------------------------------------------------------|
A|-7-------------------------------------------------------------------------|
E|-0-------------------------------------------------------------------------|

Guitar 2
2:02
e|-0-------------------------------------------------------------------------|
B|-8-------------------------------------------------------------------------|
G|-9-------------------------------------------------------------------------|
D|-9-------------------------------------------------------------------------|
A|-7-------------------------------------------------------------------------|
E|-0-------------------------------------------------------------------------|

Guitar 1
2:09
e|--------|------------------------------------------------------------------|
B|--------|------------------------------------------------------------------|
G|--11-12-|------------------------------------------------------------------|
D|--------|------------------------------------------------------------------|
A|--9/-10-|------------------------------------------------------------------|
E|--------|------------------------------------------------------------------|

Guitar 2
2:10
e|-0-------------------------------------------------------------------------|
B|-8-------------------------------------------------------------------------|
G|-9-------------------------------------------------------------------------|
D|-9-------------------------------------------------------------------------|
A|-7-------------------------------------------------------------------------|
E|-0-------------------------------------------------------------------------|

2:10 Back to |-Verse-|

3:03 Back to |-Breakdown-|

3:33 Back to |-Bridge-|

|-Outro-|
4:05
Guitar 1
e|-7---7---7---7-------------------------------------------------------------|
B|-8---10--8---8-------------------------------------------------------------|
G|-7---7---7---9-------------------------------------------------------------|
D|-9---9---9---9-------------------------------------------------------------|
A|-7---7---7---7-------------------------------------------------------------|
E|-0---0---0---0-------------------------------------------------------------|

Guitar 2 RepeatX4
4:04
e|---12--12--12--------------------------------------------------------------|
B|---------------------------------------------------------------------------|
G|----------------11h12p11---------------------------------------------------|
D|-14--14---14---------------------------------------------------------------|
A|---------------------------------------------------------------------------|
E|---------------------------------------------------------------------------|

Guitar 1
4:34
e|---------------------------------------------------------------------------|
B|---------------------------------------------------------------------------|
G|--11-12--------------------------------------------------------------------|
D|---------------------------------------------------------------------------|
A|--9/-10--------------------------------------------------------------------|
E|---------------------------------------------------------------------------|

Guitar 2
4:34
e|--14/15--------------------------------------------------------------------|
B|---------------------------------------------------------------------------|
G|--11/12--------------------------------------------------------------------|
D|---------------------------------------------------------------------------|
A|---------------------------------------------------------------------------|
E|---------------------------------------------------------------------------|

Thats it
Thanks

| /  slide up
| \  slide down
| h  hammer-on
| p  pull-off
| ~  vibrato
| +  harmonic
| x  Mute note
==============================================================================


Share "Hole" by 65daysofstatic


TOP 10 TABS

FRESH NEW TABS

ALL ARTISTS
artist wiki

mp3bear.com
song lyrics / contact us / privacy policy / tabspace toolbar
Copyright 2004 - 2014 TabSpace.com - All Rights Reserved.
song: hole guitar tabs by 65daysofstatic

0.029