:: Guitar & Bass Tabs Make Home Page
A B C D E F G H I J K L M N O P Q R S T U V W X Y Z #

  for    

On TABSPACE
Info About This Tab
Artist: Misc Television
Tab Type: Guitar
Difficulty: novice
Rate This Tab!
E||---------------------||-----------------------------|
B||---------------------||-----------------------------|
G||---------------------||*-------3--x-4--x--6--8--11--|
D||------2--------------||*--4--x-3--x-4--x--6--8--11--|
A||--/4-----2h-4p-2-----||---4--x-1--x-2--x--4--6---9--|
E||-----------------5-2-||---2--x----------------------|

                               (Not sure of actual notes, just strum around      
                                with E and a lot of distortion) 
----------------------------||-----------0---------|-------0--------------|
----------------------------||--0-------------0----|------------0---------|
-------3--x-4--x-----------*||--1------------------|--1--------------1----|
--4--x-3--x-4--x--7--4-----*||--2------------------|--2-------------------|
--4--x-1--x-2--x--7--4------||--2------------------|--2-------------------|
--2--x------------5--2------||--0------------------|--0-------------------|


--------------------------------------||-----------------------------|
-----3--------------------------------||-----------------------------|
--4-----2h-4p-2-----------------------||*-------3--x-4--x--6--8--11--|
----------------4-2----2--------------||*--4--x-3--x-4--x--6--8--11--|
--------------------4-----2h-4p-2-----||---4--x-1--x-2--x--4--6---9--|
----------------------------------5-2-||---2--x----------------------|


----------------------------||--------------------2--------||
----------------------------||--------------------2--------||
-------3--x-4--x-----------*||--------------------3--------||
--4--x-3--x-4--x--7--4-----*||-----2--------------4--------||
--4--x-1--x-2--x--7--4------||--4-----2h-4p-2-----4--------||
--2--x------------5--2------||----------------5-2-2--------||





Tablature Legend
----------------
| /  slide up
| \  slide down
| h  hammer-on
| p  pull-off
| ~  vibrato
| x  Mute note
===============


Share "Hollyoaks Theme" by Misc Television


TOP 10 TABS

FRESH NEW TABS

ALL ARTISTS
artist wiki

mp3bear.com
song lyrics / contact us / privacy policy / tabspace toolbar
Copyright 2004 - 2014 TabSpace.com - All Rights Reserved.
song: hollyoaks theme guitar tabs by misc television

0.013