:: Guitar & Bass Tabs Make Home Page
A B C D E F G H I J K L M N O P Q R S T U V W X Y Z #

  for    

On TABSPACE
Info About This Tab
Artist: Kentucky Headhunters
Tab Type: Guitar
Difficulty: novice
Rate This Tab!
-------------------------------------------------------------------------------
			     Honky tonk walkin - Kentucky headhunters




Tabbed by:Unregistered
Email:james_beck88@hotmail.com Email me if you want anymore tabs done

Tuning:Standard

Intro



e|------------------------------|
B|-5-7-5-7-5-7----5-7-9-5-3/----|
G|-------------7----------------|
D|------------------------------|
A|------------------------------|
E|------------------------------|

e|-------------------------------------|
B|-2-4-2-4-2-4-2-----------------------|
G|---------------4-2/------------------|
D|-------------------------------------|
A|-------------------------------------|
E|-------------------------------------|

e|-------7-----5---7--5----------------|
B|-7-7-9---5-7-----------7--3/---------|
G|-------------------------------------|
D|-------------------------------------|
A|-------------------------------------|
E|-------------------------------------|

e|--9-9-9-7-5--------------------------|
B|------------7-7--3/------------------|
G|-------------------------------------|
D|-------------------------------------|
A|-------------------------------------|
E|-------------------------------------|




Share "Honky Tonk Walkin Intro" by Kentucky Headhunters


TOP 10 TABS

FRESH NEW TABS

ALL ARTISTS
artist wiki

mp3bear.com
song lyrics / contact us / privacy policy / tabspace toolbar
Copyright 2004 - 2014 TabSpace.com - All Rights Reserved.
song: honky tonk walkin intro guitar tabs by kentucky headhunters

0.002