:: Guitar & Bass Tabs Make Home Page
A B C D E F G H I J K L M N O P Q R S T U V W X Y Z #

  for    

On TABSPACE
Info About This Tab
Artist: Misc Television
Tab Type: Guitar
Difficulty: novice
Rate This Tab!
Fondo
[notas mudas]
E|---------------------------|
B|---------------------------|
G|---------------------------|
D|--------2-2222-------3-3333|
A|-----------------3---------|
E|-2-2--2--------3---3-------|
   x x  x x xxxx x x x x xxxx
guitarra antes del intro
E|-----0---------0-|-----0---------0-|-----0---------0-|
B|---------3---3---|---------3---3---|---------3---3---|
G|-2-2---2---2-----|-2-2---2---2-----|-2-2---2---2-----|
D|-----------------|-----------------|-----------------|
A|-----------------|-----------------|-----------------|
D|-----------------|-----------------|-----------------| x2


E|-----0---------0-|-----0---------0-|-----0---------0-|
B|---------3---3---|---------3---3---|---------3---3---|
G|---2---2---2-----|---2---2---2-----|---2---2---2-----|
D|-----------------|-----------------|-----------------|
A|-0---------------|-----------------|-----------------|
D|-----------------|-5---------------|-0---------------| x2

intro
E|-8^-8-3-5~7~~----|-8^-8-3-5~7~~----|-8^-8-3-5~7~~----|
B|-----------------|-----------------|-----------------|
G|-----------------|-----------------|-----------------|
D|-----------------|-----------------|-----------------|
A|-0---------------|-0---------------|-----------------|
E|-----------------|-----------------|-0---------------|

slide
E|---------------------|-------------------------------|
B|-3/5/6--3/5/8--3/5/10|-3/5/10-3/5/8--3/5/3-----------|
G|---------------------|-------------------------------|
D|---------------------|-------------------------------|
A|---------------------|-------------------------------|
E|---------------------|-------------------------------|


Share "House Md Teme" by Misc Television


TOP 10 TABS

FRESH NEW TABS

ALL ARTISTS
artist wiki

mp3bear.com
song lyrics / contact us / privacy policy / tabspace toolbar
Copyright 2004 - 2014 TabSpace.com - All Rights Reserved.
song: house md teme guitar tabs by misc television

0.035