:: Guitar & Bass Tabs Make Home Page
A B C D E F G H I J K L M N O P Q R S T U V W X Y Z #

  for    

On TABSPACE
Info About This Tab
Artist: Hard-fi
Tab Type: Bass
Difficulty: novice
Rate This Tab!
Main Riff
G|-------------------------|
D|-------------------------|
A|--55\----------55\-------|
E|00---5-3-5-3-00---5-3-5-3|

Chorus
G|-------------------------------------------------------------|
D|---------------------------56-5555555555555554444444444444444|
A|33333333333333334444444444x----------------------------------|
E|-------------------------------------------------------------|

After the chorus there is a bit with no bass,then you play this before the "na na na na 
na" bit where the main riff is played.
G|3-5-7-9\-|
D|---------|
A|---------|
E|--------0|


Share "I Close My Eyes" by Hard-fi


TOP 10 TABS

FRESH NEW TABS

ALL ARTISTS
artist wiki

mp3bear.com
song lyrics / contact us / privacy policy / tabspace toolbar
Copyright 2004 - 2014 TabSpace.com - All Rights Reserved.
song: i close my eyes bass tabs by hard-fi

0.017