:: Guitar & Bass Tabs Make Home Page
A B C D E F G H I J K L M N O P Q R S T U V W X Y Z #

  for    

On TABSPACE
Info About This Tab
Artist: Electric Six
Tab Type: Guitar
Rate This Tab!
-------------------------------------------------------------------------------
		     I DON'T LIKE YOU - Electric Six
-------------------------------------------------------------------------------
Tabbed by: Refugeesus
Email: bxy959@hotmail.com or www.myspace.com/sinistertones

Tuning: Standard

Instructions: 
   Some of my twiddly stuff is probably wrong, but rhythm is sound
   I tried something different again. All music with lyrics below them
   Listen along to get all breaks and rhythms right

| p  pull-off
| x  Mute note

FIG 1.
e|-----------------------------------------------------------------|
B|-----------------------------------------------------------------|
G|-----------------------------------------------------------------|
D|-5-5-5-5-5-5-5-5-2-2-2-2-2-2-2-2-5-5-5-5-5-5-5-5-2-2-2-2-2-2-2-2-|
A|-3-3-3-3-3-3-3-3-0-0-0-0-0-0-0-0-5-5-5-5-5-5-5-5-2-2-2-2-2-2-2-2-|
E|---------------------------------3-3-3-3-3-3-3-3-0-0-0-0-0-0-0-0-|
   C5              A5              G5              E5

FIG 2.
e|-----------------------------------------------------------------|
B|-----------------------------------------------------------------|
G|-----------------------------------------------------------------|
D|-7-7-7-7-7-7-7-7-9-9-9-9-9-9-9-9-5-5-5-5-5-5-5-5-7-7-7-7-7-7-7-7-|
A|-5-5-5-5-5-5-5-5-7-7-7-7-7-7-7-7-5-5-5-5-5-5-5-5-7-7-7-7-7-7-7-7-|
E|---------------------------------3-3-3-3-3-3-3-3-5-5-5-5-5-5-5-5-|
   D5              E5              G5              A5

FIG 3.
e|-------------------------------|
B|-------------------------------|
G|-------------------------------|
D|-5-5-5-5-2-2-2-2-2-5-X-X-7-X-X-|
A|-3-3-3-3-0-0-0-0-0-5-X-X-7-X-X-|
E|-------------------3-X-X-5-X-X-|
   C5      A5        G5    A5

FIG 4.
e|-----------------------------7--7-7----|
B|---------8---------8----------------10-|
G|-----7-9-------7-9-------7-9-----------|
D|-7-9-------7-9-------7-9---------------|
A|---------------------------------------|
E|---------------------------------------|

FIG 5.
e|-----------------------------------------------------------------|
B|-----------------------------------------------------------------|
G|-----------------------------------------------------------------|
D|-5-5-5-5-5-5-5-5-7-7-7-7-7-7-7-7-2-2-2-2-2-2-2-2-5-5-5-5-5-5-5-5-|
A|-3-3-3-3-3-3-3-3-5-5-5-5-5-5-5-5-2-2-2-2-2-2-2-2-5-5-5-5-5-5-5-5-|
E|---------------------------------0-0-0-0-0-0-0-0-3-3-3-3-3-3-3-3-|
   C5              D5              E5              G5

FIG 6.
e|--------------------------------|
B|--------------------------------|
G|---------0---2---4--4-4-0-2p0---|
D|-2-2-2-2---2---2--------------2-|
A|--------------------------------|
E|--------------------------------|


Someone told me you were cool
But the more I think about it
that someone must have been you

C5                                  A5           
Did you read your books at school?

           G5                              E5         
'Cause you really don't seem ready for the drop of the other shoe

C5                       A5
   Wasting all your time howling at a half moon

G5                       E5    
Adding a little doom and gloom to your doom and gloom

D5                    E5
  You can do what you do

G5                         A5
  But I got bigger fish to fry than you

    C5      A5                  G5   A5
And I-I-I-I don't like you

    C5      A5                  G5   A5
And I-I-I-I don't want you here oh dear

FIG 4. over FIG 1.
e|-----------------------------7--7-7----|
B|---------8---------8----------------10-|
G|-----7-9-------7-9-------7-9-----------|
D|-7-9-------7-9-------7-9---------------| X2
A|---------------------------------------|
E|---------------------------------------|   

C5                            A5
Is that the best that you can do?

          G5                                E5
'Cause it really doesn't seem like you went ahead and thought it through

C5                       A5
   Yelling 'til you turn blue

        G5                               E5        
But you better call that bluff before it goes ahead and calls you

C5                    A5
   And I really don't care whose side you're on

G5                    E5
   This here ain't a sprint this is a marathon


D5                      E5
   You can say what you say

        G5                    A5
But I'd really like it if you just went away

    C5      A5                  G5   A5
And I-I-I-I can't take you

    C5      A5                  G5   A5
And I-I-I-I don't want you here not near

FIG 4. over FIG 1.
e|-----------------------------7--7-7----|
B|---------8---------8----------------10-|
G|-----7-9-------7-9-------7-9-----------| 
D|-7-9-------7-9-------7-9---------------| X2
A|---------------------------------------|
E|---------------------------------------|  

You say:

C5              D5
   Can we talk about this later?

E5              G5
   Can we talk about this later?

C5                 D5
   Blinded by your self adulation

E5                  G5
   Deafened by your heinous orations

C5  C5   C5   C5 X D5    D5  D5  D5 D5
Hey hey! Give us a break you big baby!

FIG 6.
e|--------------------------------|
B|--------------------------------|
G|---------0---2---4--4-4-0-2p0---|
D|-2-2-2-2---2---2--------------2-| X2
A|--------------------------------|
E|--------------------------------|



Solo!

FIG 1. X2


D5                     E5
   You can do what you do
G5                       A5
But I got bigger fish to fry than you

    C5      A5                  G5   A5
And I-I-I-I don't like you

    C5      A5                  G5   A5
And I-I-I-I don't want you here

    C5      A5                  G5   A5
And I-I-I-I can't take you

    C5      A5                  G5   A5
And I-I-I-I don't want you here 

FIG 4. over FIG 1.
e|-----------------------------7--7-7----|
B|---------8---------8----------------10-|
G|-----7-9-------7-9-------7-9-----------| 
D|-7-9-------7-9-------7-9---------------| X2
A|---------------------------------------|
E|---------------------------------------|  

FIG 1. X REPEAT (outro solo)

==============================================================================


Share "I Dont Like You" by Electric Six


TOP 10 TABS

FRESH NEW TABS

ALL ARTISTS
artist wiki

mp3bear.com
song lyrics / contact us / privacy policy / tabspace toolbar
Copyright 2004 - 2014 TabSpace.com - All Rights Reserved.
song: i dont like you guitar tabs by electric six

0.013