:: Guitar & Bass Tabs Make Home Page
A B C D E F G H I J K L M N O P Q R S T U V W X Y Z #

  for    

On TABSPACE
Info About This Tab
Artist: 65daysofstatic
Tab Type: Guitar
Difficulty: novice
Rate This Tab!
I Swallowed Hard, Like I Understood
65daysofstatic


Intro (Arranged for guitar)
e|----------------------------------------|
B|-----12-12-----12-10-----10-10-----7-5--|
G|----------------------------------------|
D|----------------------------------------|
A|---2---------2---------2---------2------|
E|-0-0-------0-0-------0-0-------0-0------|

Gtr 2
e|-----------------------------------------|
B|-----5--5------5-7-7-----7--7------7-8-8-|
G|-----------------------------------------|
D|-----------------------------------------|
A|-----------------------------------------|
E|-----------------------------------------|

Verse
e|----------------------------------------|
B|----------------------------------------|
G|-16-16-12--17-16-14--16-16-19--14-16-19-|
D|----------------------------------------|
A|-14-14-10--15-14-12--14-14-17--12-14-17-|
E|----------------------------------------|

Lead
e|------------------------|
B|-17-17-17--------15-----|
G|----------14--16----16--|
D|------------------------|
A|------------------------|
E|------------------------| X2

e|--------------------|
B|-7-8---7-8----------|
G|-----9-----9-7-9----|
D|-----------------9--|
A|--------------------|
E|--------------------| X2


Share "I Swallowed Hard Like I Understood" by 65daysofstatic


TOP 10 TABS

FRESH NEW TABS

ALL ARTISTS
artist wiki

mp3bear.com
song lyrics / contact us / privacy policy / tabspace toolbar
Copyright 2004 - 2014 TabSpace.com - All Rights Reserved.
song: i swallowed hard like i understood guitar tabs by 65daysofstatic

0.009