:: Guitar & Bass Tabs Make Home Page
A B C D E F G H I J K L M N O P Q R S T U V W X Y Z #

  for    

On TABSPACE
Info About This Tab
Artist: Panic At The Disco
Tab Type: Guitar
Rate This Tab!
Song by Panic!At the disco
Title:I Write Sins Not Tradgies
Album:A Fever You Can’t Sweat out
Tuning:Drop D


Im Sure this song is 99% right if you spot anything let me know

Key:
\=Slide Up
/=Slide Down
H=Hammer
P=Pull
~=Let it ring
*=Palm Mute


Riff1

e|------------------------------------------------------------|
B|------------------------------------------------------------|
G|------------------------------------------------------------|
D|----10-0-9------10-0-9------10-0-9------10-0-9---10-12-10-9-|
A|0-7---------0-7---------0-7---------0-7---------9-----------|
D|------------------------------------------------------------|

* *  * *  * * *  * *  * * *  * *  * * *  * *  * *  *  * * *


e|--------------------------------------|
B|--------------------------------------|
G|--------------------------------------|
D|-10-12-10-9------10-9-10------10-9-10-|  X2
A|9------------0-7----------0-7---------|
D|--------------------------------------|
  **  *  *  *  * * *  * *   * * *  * *


e|------------------------------------------------------------|
B|------------------------------------------------------------|
G|------------------------------------------------------------|
D|----10-0-9------10-0-9------10-0-9------10-0-9---10-12-10-9-|
A|0-7---------0-7---------0-7---------0-7---------9-----------|
D|------------------------------------------------------------|
* *  * *  * * *  * *  * * *  * *  * * *  * *  * *  *  * * *


e|------------------------------|
B|------------------------------|
G|------------------------------|
D|-10-12-10-9------10-9-10------|
A|9------------0-7-----------8--|
D|------------------------------|
  **  *  *  *  * * *  * *    *


Riff 2

e|--------------------------------------------------------------|
B|--------------------------------------------------------------|
G|---------------7-7-7-7-7----------------------7-7-7-7-777-----|
D|7-7-77-3-3-3-0-7-7-7-7-7—-0H5—-7-7-77-3-3-3-0-7-7-7-7-777-555-|
A|7-7-77-3-3-3-0-5-5-5-5-5—-0H5-—7-7-77-3-3-3-0-5-5-5-5-555-555-|
D|7-0-77-3-0-3-0------------0H5—-7-0-77-3-0-3-0-------------555-|

e|----------------------------------------------------------------|
B|----------------------------------------------------------------|
G|----------------------7-7-7-7-7-7-------------------------7-7-7-|
D|7--7-7-7-7-3-3-3-3—-0-7-7-7-7-7-7-0H5—-7—7-7-7-3-3-3-3—-0-7-7-7-|
A|7—-7-7-7-7-3-3-3-3—-0-5-5-5-5-5-5-0H5—-7-7-7-7-3-3-3-3—-0-5-5-5-|
D|7—-7-7-7-7-3-3-3-3—-0-------------0H5--7-7-7-7-3-3-3-3-—0-------|


e|--------|
B|--------|
G|7-7-0H5-|
D|7-7-0H5-|
A|5-5-0H5-|
D|--------|


Riff 3

e|------------------------------------------------------------|
B|------------------------------------------------------------|
G|------------------------------------------------------------|
D|----10-0-9------10-0-9------10-0-9------10-0-9---10-12-10-9-|
A|0-7---------0-7---------0-7---------0-7---------9-----------|
D|------------------------------------------------------------|
* *  * *  * * *  * *  * * *  * *  * * *  * *  * *  *  * * *

e|--------------------------------------|
B|--------------------------------------|
G|--------------------------------------|
D|-10-12-10-9------10-9-10------10-9-10-|  X2
A|9------------0-7----------0-7---------|
D|--------------------------------------|
  **  *  *  *  * * *  * *   * * *  * *

Riff 4


e|---------------|
B|---------------|
G|9-10-7--9-10-7-|
D|---------------|
A|---------------|
D|---------------|

Riff 5

e|----------------------------------------------------------|
B|----------------------------------------------------------|
G|-------------------7-7-7-7-7------------------------7-7-7-|
D|7-7-7-7-3-3-3-3-—0-7-7-7-7-7-0H5-7-7-7-7-3-3-3-3—-0-7-7-7-|
A|7-7-7-7-3-3-3-3—-0-5-5-5-5-5-0H5-7-7-7-7-3-3-3-3—-0-5-5-5-|
D|7-7-7-7-3-3-3-3—-0-----------0H5-7-7-7-7-3-3-3-3--0-------|


E|----------------|
B|----------------|
G|7--7—-7---------|
D|7-—7-—7-555-7---|
A|5-—5-—5-555-7---|
D|--------555-7---|


e|----------------------------------------------------------|
B|----------------------------------------------------------|
G|-------------------7-7-7-7-7------------------------7-7-7-|
D|7-7-7-7-3-3-3-3-—0-7-7-7-7-7-0H5-7-7-7-7-3-3-3-3—-0-7-7-7-|
A|7-7-7-7-3-3-3-3—-0-5-5-5-5-5-0H5-7-7-7-7-3-3-3-3—-0-5-5-5-|
D|7-7-7-7-3-3-3-3—-0-----------0H5-7-7-7-7-3-3-3-3--0-------|


E|--------------------------------------|
B|--------------------------------------|
G|7--7—-7-------------------------------|
D|7-—7-—7-333-3~--000-0~--333-3~-000-0~-|
A|5—-5—-5-333-3~--000-0~--333-3~-000-0~-|
D|--------333-3~--000-0~--333-3~-000-0~-|
          ***     ***     ***    ***



Riff 6

e|------------------------------------|
B|------------------------------------|
G|------------------------------------|
D|33333333333-10101010101010101010-3~-|
A|33333333333-10101010101010101010-3~-|
D|33333333333-10101010101010101010-3~-|

e|------------------------------------------------------|
B|------------------------------------------------------|
G|---------------7-7-7-7-7----------------------7-7-7-7-|
D|7-7-77-3-3-3-0-7-7-7-7-7—-0H5—-7-7-77-3-3-3-0-7-7-7-7-|
A|7-7-77-3-3-3-0-5-5-5-5-5—-0H5-—7-7-77-3-3-3-0-5-5-5-5-|
D|7-0-77-3-0-3-0------------0H5—-7-0-77-3-0-3-0---------|

e|------------------------------------------------------|
B|------------------------------------------------------|
G|---------------7-7-7-7-7----------------------7-7-7-7-|
D|7-7-77-3-3-3-0-7-7-7-7-7—-0H5—-7-7-77-3-3-3-0-7-7-7-7-|
A|7-7-77-3-3-3-0-5-5-5-5-5—-0H5-—7-7-77-3-3-3-0-5-5-5-5-|
D|7-0-77-3-0-3-0------------0H5—-7-0-77-3-0-3-0---------|


e|--------------------------------------|
B|--------------------------------------|
G|7--7—-7-------------------------------|
D|7-—7-—7-333-3~--000-0~--333-3~-000-0~-|
A|7—-7—-7-333-3~--000-0~--333-3~-000-0~-|
D|--------333-3~--000-0~--333-3~-000-0~-|
          ***     ***     ***    ***

Riff 7

e|--------------------------------------------------------------|
B|--------------------------------------------------------------|
G|--------------------------------------------------------------|
D|33333333333-10101010101010101010-3333333333-0000000000-333-3~-|
A|33333333333-10101010101010101010-3333333333-0000000000-333-3~-|
D|33333333333-10101010101010101010-3333333333-0000000000-333-3~-|
                                                         ***


Share "I Write Sins Not Tradgies" by Panic At The Disco


TOP 10 TABS

FRESH NEW TABS

ALL ARTISTS
artist wiki

mp3bear.com
song lyrics / contact us / privacy policy / tabspace toolbar
Copyright © 2004 - 2014 TabSpace.com - All Rights Reserved.
song: i write sins not tradgies guitar tabs by panic at the disco

0.011