:: Guitar & Bass Tabs Make Home Page
A B C D E F G H I J K L M N O P Q R S T U V W X Y Z #

  for    

On TABSPACE
Info About This Tab
Artist: Bootsy Collins
Tab Type: Bass
Rate This Tab!
I'd Rather Be With You
Bootsy's Rubber Band
Stretchin' Out in Bootsy's Rubber Band
Tabbed by Z-Funk Zero A.K.A Zubi Onwuka

s=slap
\=slide down to
/=slide up to
h=hammer on to
S=slap following notes
X=stop slapping notes
x=mute note
g=ghost note

E|-s0--/5\-----0---------------/5\------0-----0------------------------------------|
A|--------5-5---------5-7-7--------5-5---------------------------------------------|
D|----------------5\4--------------------------------------------------------------|
G|---------------------------------------------------------------------------------|

E|-----/5\-----0---------------/5\------0-----0------------------------------------|
A|--------5-5---------5/7-7\--------5-5--------------------------------------------|
D|----------------5\4--------------------------------------------------------------|
G|---------------------------------------------------------------------------------|

E|------------0----0------------0--------------------------------------------------|
A|--3-3--5-5-----------3-3--5-5----------7-5---------------------------------------|
D|---------------------------------9-7-5-------------------------------------------|
G|---------------------------------------------------------------------------------|

E|-----------0------------------------0--------------------------------------------|
A|--3-3--5-5-----------------3-3--5-5---------------5------------------------------|
D|--------------9\7--5-7-5-------------5-7-5-7--7-5--------------------------------|
G|---------------------------------------------------------------------------------|

E|-----/5\-----0---------------/5\------0--3-h5------------------------------------|
A|--------5-5----5\3-0-5-3-0-3------5-5---------3--5-5-----------------------------|
D|---------------------------------------------------------------------------------|
G|---------------------------------------------------------------------------------|

E|-----/5\-----0---------------/5\------0------------------------------------------|
A|--------5-5---------5-7-7--------5-5---------------------------------------------|
D|----------------5\4--------------------------------------------------------------|
G|---------------------------------------------------------------------------------|

E|------------0------------------------0-------------------------------------------|
A|--3-3--5-5-----5-7----------3-3--5-5---------------------------------------------|
D|-------------------5-7-5\--------------5-7-5-7-5-7-5-7-5-7-5--2------------------|
G|---------------------------------------------------------------------------------|

E|------------0------------------------s0------------------------------------------|
A|--3-3--5-5----5-7------7----3-3--5-5---------------------------------------------|
D|------------------5-7\5----------------------------------------------------------|
G|---------------------------------------------------------------------------------|

E|-----/5\-----0---------------/5\------0-----0------------------------------------|
A|--------5-5---------5-7-7--------5-5---------------------------------------------|
D|----------------5\4--------------------------------------------------------------|
G|---------------------------------------------------------------------------------|

E|-----/5\-----0---------------/5\------0-----0------------------------------------|
A|--------5-5---------5/7-7\--------5-5--------------------------------------------|
D|----------------5\4--------------------------------------------------------------|
G|---------------------------------------------------------------------------------|

E|-0-0-0------------0-0-0-----------0-0-0------------0-0---------------------------|
A|-------5-7---7----------5-7---7---------5-7---7--------5-5/7--/7-----------------|
D|-----------5---------------5-7--------------5---------------5--------------------|
G|---------------------------------------------------------------------------------|

E|-0-0-0-------------0---0------------0-0----------0--------------------0----------|
A|-------5-7----7-5-----------------------5-7-----------------------7-5------------|
D|-----------7-5-----------7/9----------------7-5----7-9--9-7-5-7-5----------------|
G|-----------------------------7-9-9\--------------------7-------------------------|

E|------------0----0------------0----0---------------------------------------------|
A|--3-3--5-5-----------3-3--5-5----------------------------------------------------|
D|---------------------------------------------------------------------------------|
G|---------------------------------------------------------------------------------|

E|------------0--------------------------------0-----------------------------------|
A|--3-3--5-5-------------------------3-3--5-5--------------------------------------|
D|--------------7-5-7-5-7---5-7-5\-------------------------------------------------|
G|------------------------5--------------------------------------------------------|

E|------5\-----0----------------5\------0------------------------------------------|
A|--------5\-------------------------5\----5-7-------------------------------------|
D|---------------------------------------------5-2--7-5\---------------------------|
G|---------------------------------------------------------------------------------|

E|------5\-----0----------------5\------0------------------------------------------|
A|---------5------------------------5----------------------------------------------|
D|----------------s5/7\s5\---------------------------------------------------------|
G|---------------------------------------------------------------------------------|

E|S-----------0----0------------x0-------------------------------------------------|
A|S-3-3--5-5-----------3-3--5-5----------------------------------------------------|
D|S----------------------------------2/X14-----------------------------------------|
G|---------------------------------------------------------------------------------|

E|------5\-----x0--x0-xg-x0-x0-xg-0-------5\------0----0---------------------------|
A|---------5---------------------------------5-------------------------------------|
D|---------------------------------------------------------------------------------|
G|---------------------------------------------------------------------------------|

E|S-/5-5-5-5-5-5-5---------------0-0-0-0-5-5-5-5-5-5-5-----------------------------|
A|S----------------5-5-5-5-5-5-5-----------------------5-5-5-5-5-5-5-7-7-7-7-7-7-7\|
D|---------------------------------------------------------------------------------|
G|---------------------------------------------------------------------------------|

I'll stop here cause you guys should from here show off some improvising skills!!!


Share "Id Rather Be With You" by Bootsy Collins


TOP 10 TABS

FRESH NEW TABS

ALL ARTISTS
artist wiki

mp3bear.com
song lyrics / contact us / privacy policy / tabspace toolbar
Copyright 2004 - 2014 TabSpace.com - All Rights Reserved.
song: id rather be with you bass tabs by bootsy collins

0.006