:: Guitar & Bass Tabs Make Home Page
A B C D E F G H I J K L M N O P Q R S T U V W X Y Z #

  for    

On TABSPACE
Info About This Tab
Artist: Daphne Loves Derby
Tab Type: Guitar
Difficulty: intermediate
Rate This Tab!
------------------------------------------------------------------------------
If You’re Lucky No One Will Get Hurt – Daphne Loves Derby
-------------------------------------------------------------------------------
Tabbed by: vsthesea
Email: aweissjr@gmail.com

Tuning: Standard

Intro. (Arpeggiated in the pattern 534)
e|--------------------------------------------------------------------------|
B|--------------------------------------------------------------------------|
G|-11---7-------------------------------------------------------------------|
D|-12---5-------------------------------------------------------------------|
A|-10---7-------------------------------------------------------------------|
E|--------------------------------------------------------------------------|

Pre-chorus ditty
e|--------------------------------------------------------------------------|
B|--------------------------------------------------------------------------|
G|--11----------------------------------------------------------------------|
D|--12----------------------------------------------------------------------|
A|--10----------------------------------------------------------------------|
E|--------------------------------------------------------------------------|

Chorus (And I... I can be destructive too) x2
e|--------------------------------------------------------------------------|
B|--------------------------------------------------------------------------|
G|--11-6-11-6---------------------------------------------------------------|
D|--12-7-12-7-7-------------------------------------------------------------|
A|--10-5-10-5-7-------------------------------------------------------------|
E|------------5-------------------------------------------------------------|

Verse (A change is coming yes its on its way to make things fair) 
e|--------------------------------------------------------------------------|
B|--------------------------------------------------------------------------|
G|---7-6-7-14---x-----------------------------------------------------------|
D|---5-7-5-12---x-(crazy quick!)-----------------------------------------------|
A|---7-5-7-13---x-----------------------------------------------------------|
E|--------------------------------------------------------------------------|

Pre-Chorus Ditty
e|--------------------------------------------------------------------------|
B|--------------------------------------------------------------------------|
G|--11----------------------------------------------------------------------|
D|--12----------------------------------------------------------------------|
A|--10----------------------------------------------------------------------|
E|--------------------------------------------------------------------------|

Repeat Chorus

Ending (I’ll hunt the hands that took my place…) End on…
e|--------------------------------------------------------------------------|
B|--------------------------------------------------------------------------|
G|--7--11---7-14----------------11------------------------------------------|
D|--5--12---5-12---(x2)—--------12------------------------------------------|
A|--7--10---7-13----------------10------------------------------------------|
E|-------------------------------0------------------------------------------|

Intro
Prechorus ditty
Chorus
Verse
Prechorus ditty
Chorus
Ending




Share "If Youre Lucky No One Will Get Hurt" by Daphne Loves Derby


TOP 10 TABS

FRESH NEW TABS

ALL ARTISTS
artist wiki

mp3bear.com
song lyrics / contact us / privacy policy / tabspace toolbar
Copyright © 2004 - 2014 TabSpace.com - All Rights Reserved.
song: if youre lucky no one will get hurt guitar tabs by daphne loves derby

0.01