:: Guitar & Bass Tabs Make Home Page
A B C D E F G H I J K L M N O P Q R S T U V W X Y Z #

  for    

On TABSPACE
Info About This Tab
Artist: Yui
Tab Type: Guitar
Difficulty: novice
Rate This Tab!
Hey all...decided to submit it here..all credits goes to tsunvun86...he made it...it's 
he didn't submit it here...that's all..to all YUI fans!!!
YUI - I'll be

Asus2 - x02200
Dsus2 - xx0230

Intro:
Dsus2 G Asus2 Bm
Dsus2 G Asus2

Dsus2 Asus2 C G

Verse:
Asus2 Dsus2 (x2)
G Asus2 Bm Dsus2
Em G Asus2 Bm

Chorus:
Dsus2 G Asus2 Bm (x2)

Solo 1:
Dsus2 Asus2 C G (x2)

repeat Verse

repeat Chorus

Solo 2:
Dsus2 G Asus2 Bm (x2)

Interlude:
G Asus2 Bm Dsus2 (x3)
Em Asus2

repeat Chorus

repeat Chorus

Outro:
Dsus2 Asus2 C G (x2)
C

Intro Solo:
---------------------------------------------------------------------------------------|
---------------------------------------------------------------------------------------|
-2/7-6-7-9-9/11-9-7--12/14-14-12-12-11-11-11h12p11-9-9h11--11--------------------------|
---------------------------------------------------------------------------------------|
---------------------------------------------------------------------------------------|
---------------------------------------------------------------------------------------|

Solo 1/Outro Solo:
---------------------------------------------------------------------------------------|
---------------------------------------------------------------------------------------|
-2/7-6-7-9-9/11-9-7--12/14-14-12-12-11-11-11h12p11-9-7---------------------------------|
---------------------------------------------------------------------------------------|
---------------------------------------------------------------------------------------|
---------------------------------------------------------------------------------------|

---------------------------------------------------------------------------------------|
---------------------------------------------------------------------------------------|
-2/7-6-7-9-9/11-9-7--12/14-14-12-12-11-11-11h12p11-9-9h11--11--------------------------|
---------------------------------------------------------------------------------------|
---------------------------------------------------------------------------------------|
---------------------------------------------------------------------------------------|

Solo 2:
---------------------------------------------------------------------------------------|
---------------------------------------------------------------------------------------|
-----------------11-----/12-11h12p11-----------------------------11-12-12/14-12--------|
-/12-11-------12----12---------------12------------10/12---12-14-----------------------|
--------12-12---------------------------12-10-10-9-------------------------------------|
---------------------------------------------------------------------------------------|


-12-12b14-12-10--9-10-10-10/17-17--10-9-10-10/19-19---10-9-10-10/19-19-19-17-15-15-14h15p14----|
--------------------------------------------------------------------------------------------14-|
-----------------------------------------------------------------------------------------------|
-----------------------------------------------------------------------------------------------|
-----------------------------------------------------------------------------------------------|
-----------------------------------------------------------------------------------------------|


Share "Ill Be" by Yui


TOP 10 TABS

FRESH NEW TABS

ALL ARTISTS
artist wiki

mp3bear.com
TabSpace.com / contact us / privacy policy / tabspace toolbar
Copyright 2004 - 2016 TabSpace.com - All Rights Reserved.
song: ill be guitar tabs by yui

0.003