:: Guitar & Bass Tabs Make Home Page
A B C D E F G H I J K L M N O P Q R S T U V W X Y Z #

  for    

On TABSPACE
Info About This Tab
Artist: Faber Drive
Tab Type: Guitar
Rate This Tab!
--------------------------------------------------------------------------------------------------
                                     FABER DRIVE - I'LL BE THERE
--------------------------------------------------------------------------------------------------
tabbed by: j24mew
e-mail: j24mew@yahoo.com

Tuning: standard (EADGBe)

Intro:
e|---------------------------|
B|---------------------------|
G|-------------------66666---|
D|----88888888--444--44444---| X2
A|----88888888--444--44444---|
E|----66666666--222----------|

Verse:
e|--------------------------|  |--------------------| }
B|--------------------------|  |--------------------| }
G|-------------------6666---|  |--------------------| }x2
D|----88888888--444--4444---|X3|---44444444--6666---| }
A|----88888888--444--4444---|  |---44444444--6666---| }
E|----66666666--222---------|  |---22222222--4444---| }

Chorus:
e|--------------------------------------------|
B|--------------------------------------------|
G|---66666666---------------------------------|
D|---66666666--66666666--88888888--44444444---|
A|---44444444--66666666--88888888--44444444---|
E|-------------44444444--66666666--22222222---|

e|-------------------------------|
B|-------------------------------|
G|---66666666--------------------|
D|---66666666--66666666--8-6-4---|
A|---44444444--66666666--8-6-4---|
E|-------------44444444--6-4-2---|

Repeat Intro

2nd Verse:
e|--------------------------|  |--------------------|
B|--------------------------|  |--------------------|
G|-------------------6666---|  |--------------------|
D|----88888888--444--4444---|X3|---44444444--6666---|
A|----88888888--444--4444---|  |---44444444--6666---|
E|----66666666--222---------|  |---22222222--4444---|

Repeat Chorus

Bridge:
e|--------------------|  |-----------|
B|--------------------|  |-----------|
G|--------6-----------|  |-----------|
D|----2---6---4---6---|X3|--9-9-9-8--|
A|----2---4---4---6---|  |--9-9-9-9--|
E|----0-------2---4---|  |--7-7-7-6--|

e|-------------------------------------|
B|-------------------------------------|
G|---66666666--------------------------|
D|---66666666--66666666--88888888--4---|
A|---44444444--66666666--88888888--4---|
E|-------------44444444--66666666--2---|

Repeat Chorus twice
then do this(the 1st part of the chorus) twice:
e|--------------------------------------------|
B|--------------------------------------------|
G|---66666666---------------------------------|
D|---66666666--66666666--88888888--44444444---|
A|---44444444--66666666--88888888--44444444---|
E|-------------44444444--66666666--22222222---|

Outro:
e|-------------------------------------------|
B|-------------------------------------------|
G|-------------------66666--------------6----|
D|----88888888--444--44444----88888888--4----|
A|----88888888--444--44444----88888888--4----|
E|----66666666--222-----------66666666-------|

please COMMENT if you have corrections
this is all done by ear.

---END---


Share "Ill Be There" by Faber Drive


TOP 10 TABS

FRESH NEW TABS

ALL ARTISTS
artist wiki

mp3bear.com
song lyrics / contact us / privacy policy / tabspace toolbar
Copyright 2004 - 2014 TabSpace.com - All Rights Reserved.
song: ill be there guitar tabs by faber drive

0.025