:: Guitar & Bass Tabs Make Home Page
A B C D E F G H I J K L M N O P Q R S T U V W X Y Z #

  for    

On TABSPACE
Info About This Tab
Artist: Weird Al
Tab Type: Bass
Tuning: Drop D
Rate This Tab!
Song: I'll Sue Ya Artist: 
Weird Al yankovic 


Intro: (just play each note for 1 measure each)

G|----------------------------|
D|-12-12-12-12-12-12-12-12-12-| 
A|----------------------------|
D|----------------------------| 

G|----------------------------|
D|----------------------------| 
A|-15-15-15-15-15-15-15-15-15-|
D|----------------------------| 

G|----------------------------| 
D|----------------------------| 
A|-10-10-10-10-10-10-10-10-10-| 
D|----------------------------| 

G|----------------------------| 
D|----------------------------| 
A|-12-12-12-12-12-12-12-12----| 
D|----------------------------| 

Intro2/Chorus:
G|----------------------|
D|----------------------| 
A|--5---3-5--5--3-5-35--| 
D|---0-0------0---------|

G|--------------------------|
D|--------------------------| 
A|--5---3-5--5--------------| 
D|---0-0------0-3-5-6-5-3---|

(only play this at the end of the intro)
G|--------|
D|--------| 
A|--------|
D|-0~~~~--|

Verse:
G|----------------------------|
D|-----3----------------------| 
A|-3-5----5-3-5---------------| 
D|----------------------------|

Verse Fill: (every 4 times)
G|------------|
D|------------| 
A|------------|
E|---5-6-5-3--|

Pre-Chorus:
G|----------------------------|
D|----------------------------| 
A|-----3-----2-----1----------| 
D|-00-0--00-0--00-0-----------| 

First Time:
G|-----------|
D|-----------| 
A|-----------|
E|--5-6-5-3--|

Second Time:
G|----------| 
D|-------3--| 
A|----35----| 
D|-65-------| 

Chorus

Post-Chorus 1:
G|----------------------------| 
D|----------------------------| 
A|-3-5-3-0-3-2-0-2----35------| 
D|-----------------53---------|

G|----------------------------| 
D|----------------------------| 
A|-3-5-3-0-3-2-0-2-3----------| 
D|----------------------------| 

Verse 

Last Verse:
G|-----------------------|
D|-----------------------| 
A|-3-5---REST------------| 
D|--------------5-6-5-3--|

Prechorus
Chorus

Post-Chorus 2: (not too sure on this one)
G|-------------------|
D|-------------------| 
A|--5---3-5---5--3---| 
D|---0-0-----0--0----|

End on:
G|--------|
D|--------| 
A|--------|
D|-0~~~~--|

Bridge:
G|-------------| 
D|-5--2--------| 
A|-------3--5--| 
D|-------------| 

Bridge2:
G|----------------------|
D|----------------------| 
A|--5---3-5--5--3-5-5---| 
D|---0-0------0------0--|

Prechorus
Chorus



Share "Ill Sue Ya" by Weird Al


TOP 10 TABS

FRESH NEW TABS

ALL ARTISTS
artist wiki

mp3bear.com
song lyrics / contact us / privacy policy / tabspace toolbar
Copyright 2004 - 2014 TabSpace.com - All Rights Reserved.
song: ill sue ya bass tabs by weird al

0.017