:: Guitar & Bass Tabs Make Home Page
A B C D E F G H I J K L M N O P Q R S T U V W X Y Z #

  for    

On TABSPACE
Info About This Tab
Artist: Casual Wish
Tab Type: Guitar
Difficulty: intermediate
Tuning: Drop D
Rate This Tab!
Casual Wish - "I'm A Door To Door Door Salesman"

2 Guitars (Drop D)

x   = Mutes
H   = Hammer On
/   = Slide Chord
*   = Pinch Harmonic
(_) = Regular Harmonic
~   = Let Chord Ring Out

Intro:

Guitars 1 & 2.

E|----------------------------------------|
B|----------------------------------------|
G|----------------------------------------|
D|-0~-------------------------------------|
A|-0~-------------------------------------|
D|-0~-------------------------------------|



Guitar 1.

E|----------------------------------------|
B|----------------------------------------|
G|----------------------------------------|
D|-000----000----000--------000-----------|
A|-000-9--000-7--000-5-7-9--000-10-9-7----|
D|-000----000----000--------000-----------|


Guitar 2.

E|----------------------------------------|
B|----------------------------------------|
G|----------------------------------------|
D|-000-7--000-5--000-4-5-7--000-9-7-5--0~-|
A|-000----000----000--------000--------0~-|
D|-000----000----000--------000--------0~-|



Verse: (4 Times)
"So let's go, let's tear this place to the ground..."

Guitar 2.

E|-----------------------------------------|
B|-----------------------------------------|
G|-----------------------------------------|
D|-4-5-4-------4----2--------------4-5-4---|
A|-------5----5----4------7-----5--------5-|
D|-----------0----0----7-7---5-5-----------|

E|-----------------------------------------|
B|-----------------------------------------|
G|-----------------------------------------|
D|---4----2----7-/-5-5-5--0----------------|
A|--5----4-----7-/-5-5-5--0----------------|
D|-0----0------7-/-5-5-5--0----------------|


Guitar 1.
E|-----------------------------------------|
B|-----------------------------------------|
G|-----------------------------------------|
D|------0x---7x---5x---0x---7-/-5-5-5------|
A|------0x---7x---5x---0x---7-/-5-5-5------|
D|------0x---7x---5x---0x---7-/-5-5-5------|



Chorus: (4 Times)
"Your life laid out right in front of your eyes..."

Guitar 1.

E|----------------------------------------------------|
B|----------------------------------------------------|
G|----------------------------------------------------|
D|-5---------7-4-4-5--0--7--5--4--5--4--2-H-4---------|
A|-5-4-4-5---7--------0-------------------------------|
D|-5---------7--------0-0--0--0--0--0--0--------------|

Guitar 2.

E|----------------------------------------------------|
B|----------------------------------------------------|
G|-------------2-2-4----------------------------------|
D|-5---------7--------0-------------------------------|
A|-5---------7--------0--9--7--5--7--5--4-H-5---------|
D|-5---------7--------0-0--0--0--0--0--0--------------|



Instrumental Part.

Guitar 1.

E|----------------------------------------------------|
B|----------------------------------------------------|
G|--------7-7-/---------7-7-/-------------------------|
D|-0~--------------0x---------------------------------|
A|-0~-----5-5-/----0x---5-5-/-------------------------|
D|-0~--------------0x---------------------------------|

Guitar 2.

E|----------------------------------------------------|
B|----------------------------------------------------|
G|------11-11-/--------11-12------12-14------14-12----|
D|-0~--------------0x---------0x---------0x-----------|
A|-0~----9--9-/----0x---9-10--0x--10-12--0x--12-10----|
D|-0~--------------0x---------0x---------0x-----------|

Guitar 1.

E|----------------------------------------------------|
B|----------------------------------------------------|
G|-7-7------------------------------------------------|
D|------0x--------------------------------------------|
A|-5-5--0x--------------------------------------------|
D|------0x--------------------------------------------|

Guitar 2.

E|----------------------------------------------------|
B|----------------------------------------------------|
G|-11--11---------------------------------------------|
D|---------0x-----------------------------------------|
A|-9----9--0x-----------------------------------------|
D|---------0x-----------------------------------------|



Verse: (4 Times)
Well the least you could do was call, when all the alcohol passes through you..."

Guitar 2.

E|-----------------------------------------|
B|-----------------------------------------|
G|-----------------------------------------|
D|-4-5-4-------4----2--------------4-5-4---|
A|-------5----5----4------7-----5--------5-|
D|-----------0----0----7-7---5-5-----------|

E|-----------------------------------------|
B|-----------------------------------------|
G|-----------------------------------------|
D|---4----2----7-/-5-5-5--0----------------|
A|--5----4-----7-/-5-5-5--0----------------|
D|-0----0------7-/-5-5-5--0----------------|


Guitar 1.
E|-----------------------------------------|
B|-----------------------------------------|
G|-----------------------------------------|
D|------0x---7x---5x---0x---7-/-5-5-5------|
A|------0x---7x---5x---0x---7-/-5-5-5-5*---|
D|------0x---7x---5x---0x---7-/-5-5-5------|


(Group Clapping into Group Chant)
LET'S GO! (OH)



Breakdown:

Guitar 1.

E|-----------------------------------------|
B|-----------------------------------------|
G|-----------------------------------------|
D|-0x-------0x-----------------------------|
A|-0x--(5)--0x--(4)(5)---------------------|
D|-0x-------0x-----------------------------|

Guitar 2.

E|-----------------------------------------|
B|-----------------------------------------|
G|-----------------------------------------|
D|-0x-------0x--12*------------------------|
A|-0x-------0x-----12*---------------------|
D|-0x-------0x-----------------------------|



Chorus: (4 Times)
"Your life laid out right in front of your eyes..."

Guitar 1.

E|----------------------------------------------------|
B|----------------------------------------------------|
G|----------------------------------------------------|
D|-5---------7-4-4-5--0--7--5--4--5--4--2-H-4---------|
A|-5-4-4-5---7--------0-------------------------------|
D|-5---------7--------0-0--0--0--0--0--0--------------|

Guitar 2.

E|----------------------------------------------------|
B|----------------------------------------------------|
G|-------------2-2-4----------------------------------|
D|-5---------7--------0-------------------------------|
A|-5---------7--------0--9--7--5--7--5--4-H-5---------|
D|-5---------7--------0-0--0--0--0--0--0--------------|

(Only play the below on the 4th time playing chorus)

Chorus Changes

Guitar 1.

E|----------------------------------------------------|
B|----------------------------------------------------|
G|----------------------------------------------------|
D|-5---------7-4-4-5--0~------------------------------|
A|-5-4-4-5---7--------0~------------------------------|
D|-5---------7--------0~------------------------------|

Guitar 2.

E|----------------------------------------------------|
B|----------------------------------------------------|
G|-------------2-2-4----------------------------------|
D|-5---------7--------0~------------------------------|
A|-5---------7--------0~------------------------------|
D|-5---------7--------0~------------------------------|


Share "Im A Door To Door Door Salesman" by Casual Wish


TOP 10 TABS

FRESH NEW TABS

ALL ARTISTS
artist wiki

mp3bear.com
song lyrics / contact us / privacy policy / tabspace toolbar
Copyright 2004 - 2014 TabSpace.com - All Rights Reserved.
song: im a door to door door salesman guitar tabs by casual wish

0.01