:: Guitar & Bass Tabs Make Home Page
A B C D E F G H I J K L M N O P Q R S T U V W X Y Z #

  for    

On TABSPACE
Info About This Tab
Artist: Odyssey
Tab Type: Guitar
Difficulty: novice
Rate This Tab!
 - Going Back to My Roots : Odyssey                   
-----------------------------------
Classic Funky Disco Riff !
I think the original was played by Nile Rodgers (Chic)


Riff/Verse (played throughout whole song)
-----------

Play Damping: Quite Short Cut Off Notes, Small delay, Version 1 or 2
Listen to track for Timing


Version 1
                                           
e|--------------------------------|------------------------------|
B|--------------------------------|------------------------------|
G|--------------------------------|------------------------------|
D|-----------4--4----------4--3---|--------4--4---------4--3-----|
A|---4-h-6----------4-h-6---------|-4-h-6--------4-h-6-----------|
E|--------------------------------|------------------------------|

                                   
e|---------------------|
B|----------3-3--------|
G|---------------------|
D|----------------6-6--|
A|---4-h-6------6------|
E|---------------------|

Version 2

e|--------------------------------|-------------------------------|
B|--------------------------------|-------------------------------|
G|--------------------------------|-------------------------------|
D|-----------4--4--------4--3-----|--------4--4----------4--3-----|
A|---4-h-6--------4-h-6-----------|-4-h-6---------4-h-6-----------|
E|--------------------------------|-------------------------------|

      Option                               
e|--------------------|
B|--------------------|
G|--------------------|
D| --------8-8----6-6-|
A| -4-/-6------4------|
E|--------------------|


Share "Im Going Back To Roots Intro" by Odyssey


TOP 10 TABS

FRESH NEW TABS

ALL ARTISTS
artist wiki

mp3bear.com
song lyrics / contact us / privacy policy / tabspace toolbar
Copyright 2004 - 2014 TabSpace.com - All Rights Reserved.
song: im going back to roots intro guitar tabs by odyssey

0.015