:: Guitar & Bass Tabs Make Home Page
A B C D E F G H I J K L M N O P Q R S T U V W X Y Z #

  for    

On TABSPACE
Info About This Tab
Artist: Casual Wish
Tab Type: Guitar
Difficulty: novice
Tuning: Drop D
Rate This Tab!
Casual Wish - "I'm Not Worth Waiting For"

2 Guitars (Drop D)

x = Mutes
/ = Slide Chord
~ = Let Chord Ring

Intro:

Guitar 1.

E|-----------------------------------|
B|--3----------3x-x-x-x--------------|
G|--2----------2x-x-x-x--------------|
D|--0----------0x-x-x-x--------------|
A|--0----------0x-x-x-x--------------|
D|--0----------0x-x-x-x--------------|

Guitar 2. (3 Times)

E|--5-5-5-2-2-2-3-3-3--0---0---------|
B|-----------------------3---3-------|
G|-----------------------------------|
D|-----------------------------------|
A|-----------------------------------|
D|-----------------------------------|

Guitar 2. (Once)

E|--5-5-5-2-2-2-3-0------------------|
B|------------------3----------------|
G|-----------------------------------|
D|-----------------------------------|
A|-----------------------------------|
D|-----------------------------------|

Verse: (2 Times) (Guitars 1 & 2)
"Well can we, just stop our lives..."

E|-----------------------------------|
B|--3--------------------------------|
G|--2---9---7---4--/--6--/--7--/--9--|
D|--0---7---5---2--/--4--/--5--/--7--|
A|--0---7---5---2--/--4--/--5--/--7--|
D|--0---7---5---2--/--4--/--5--/--7--|

Prechorus: (Guitars 1 & 2)
"I have learned that love only causes pain..."

E|-----------------------------------|
B|-----------------------------------|
G|-11---9---7---11---9---7---9-------|
D|--9---7---5----9---7---5---7-------|
A|--9---7---5----9---7---5---7-------|
D|--9---7---5----9---7---5---7-------|

Chorus: (2 Times)
"I'll be there in a while..."

E|-----------------------------------|
B|--3--------------------------------|
G|--2--9--7--9--11--9--7--9----------|
D|--0--7--5--7---9--7--5--7----------|
A|--0--7--5--7---9--7--5--7----------|
D|--0--7--5--7---9--7--5--7----------|

(On the 2nd chorus let last 2 chords ring out)

Back to Intro:

Guitar 1.

E|-----------------------------------|
B|--3----------3x-x-x-x--------------|
G|--2----------2x-x-x-x--------------|
D|--0----------0x-x-x-x--------------|
A|--0----------0x-x-x-x--------------|
D|--0----------0x-x-x-x--------------|

Guitar 2.

E|--5-5-5-2-2-2-3-3-3--0---0---------|
B|-----------------------3---3-------|
G|-----------------------------------|
D|-----------------------------------|
A|-----------------------------------|
D|-----------------------------------|

Verse: (2 Times) (Guitars 1 & 2)
"Let's not pretend that this was all a mistake..."

E|-----------------------------------|
B|--3--------------------------------|
G|--2---9---7---4--/--6--/--7--/--9--|
D|--0---7---5---2--/--4--/--5--/--7--|
A|--0---7---5---2--/--4--/--5--/--7--|
D|--0---7---5---2--/--4--/--5--/--7--|

Prechorus: (Guitars 1 & 2)
"I have learned that love only causes pain..."

E|-----------------------------------|
B|-----------------------------------|
G|-11---9---7---11---9---7---9-------|
D|--9---7---5----9---7---5---7-------|
A|--9---7---5----9---7---5---7-------|
D|--9---7---5----9---7---5---7-------|

Chorus: (2 Times) Guitars 1 & 2
"I'll be there in a while..."

E|-----------------------------------|
B|--3--------------------------------|
G|--2--9--7--9--11--9--7--9----------|
D|--0--7--5--7---9--7--5--7----------|
A|--0--7--5--7---9--7--5--7----------|
D|--0--7--5--7---9--7--5--7----------|

(On the 2nd chorus let last 2 chords ring out)

Chorus: (2 Times NO WORDS) Guitars 1 & 2

E|-----------------------------------|
B|--3--------------------------------|
G|--2--9--7--9--11--9--7--9----------|
D|--0--7--5--7---9--7--5--7----------|
A|--0--7--5--7---9--7--5--7----------|
D|--0--7--5--7---9--7--5--7----------|

(On the 2nd chorus let last 2 chords ring out)


Ending Pt. 1: (2 Times) (Guitars 1 & 2)
"I couldn't imagine my life without you..."
"From the second I met you, I knew I wanted..."

E|-----------------------------------|
B|-----------3-----------------------|
G|-11~--9~---2-----------------------|
D|--9~--7~---0-----------------------|
A|--9~--7~---0-----------------------|
D|--9~--7~---0-----------------------|

Ending Pt. 2: (2 Times) (Guitars 1 & 2)
"I swear on every inch of me that I love you..."

E|-----------------------------------|
B|----------3------------------------|
G|-11---9---2------------------------|
D|--9---7---0------------------------|
A|--9---7---0------------------------|
D|--9---7---0------------------------|


Share "Im Not Worth Waiting For" by Casual Wish


TOP 10 TABS

FRESH NEW TABS

ALL ARTISTS
artist wiki

mp3bear.com
song lyrics / contact us / privacy policy / tabspace toolbar
Copyright 2004 - 2014 TabSpace.com - All Rights Reserved.
song: im not worth waiting for guitar tabs by casual wish

0.016