:: Guitar & Bass Tabs Make Home Page
A B C D E F G H I J K L M N O P Q R S T U V W X Y Z #

  for    

On TABSPACE
Info About This Tab
Artist: Electric Six
Tab Type: Guitar
Rate This Tab!
ELECTRIC SIX – I’M THE BOMB

You asked for it, here it is.

Intro

G]-----6-8-8-8-8p6---
D]—6h8-------------8— x3

e]-9-8-6-6-6-
B]—9-8-6-6-6—

Play the above part twice then…

G]-----6-8-8-8-8p6---
D]—6h8-------------8— x2

G]-8—-8—-8-—8—-8--11-11-11-11-11-
D]-8--8--8--8--8--11-11-11-11-11-
A]-6--6--6--6--6--9--9--9--9--9--
E]-------------------------------

Verse

G]-----6-8-8-8-8p6---
D]—6h8-------------8— x8

G]---6---6---6---6-
D]-6---6---6---6--- x4

G]-----6-8-8-8-8p6---
D]—6h8-------------8— x7

e]-9-8-6-6-6-
B]—9-8-6-6-6—

G]-----6-8-8-8-8p6---
D]—6h8-------------8— x2

G]-8—-8—-8-—8—-8--11-11-11-11-11-
D]-8--8--8--8--8--11-11-11-11-11-
A]-6--6--6--6--6--9--9--9--9--9--
E]-------------------------------

Play this whole section twice.
(Second time through miss off the power chords)

Chorus

Distortion kicks in and…

G]-8—-8—-8-—8—-8--11-11-11-11-11-
D]-8--8--8--8--8--11-11-11-11-11-
A]-6--6--6--6--6--9--9--9--9--9--
E]------------------------------- 

G]-------------------------------
D]-11-11-11-11-11-6--6--6--6—-6--
A]-11-11-11-11-11-6—-6—-6—-6-—6--
E]-9--9--9--9—-9--4--4--4--4—-4—-

(Not the exact number of strums but you gets the picture)

Play it four times before playing…

G]-------------6—-8-
D]-4—-4—-6-—6--6--8-
A]-4--4--6--6—-4-—6-
E]-2—-2-—4--4------- x2

Solo

e]-------------------------6b~--
B]-----7-----7-----7---7-9------
G]—6h8---6h8---6h8---8----------

e]—14-13-11---------------------
B]----------14-13-11------------
G]-------------------15-13-11---  

B]--------------------
G]-13-13s15-13-11-----
D]-----------------13-

G]-------11-------------------------
D]—11h13----13-11-------------------
A]----------------13-11----11-------
E]----------------------14----14-11-

D]--------------------------11----
A]------9------9----9-11s13----11-
E]-9h11—--9h11---11---------------

B]-16—-
G]-18b-

G]-------11-------11-------11----11-
D]-11h13----11h13----11h13----13----

e]-----------------14----14-16-
B]-----------14-16----16-------
G]-13-13s15~-------------------
D]-----------------------------

e]-16-14----------------14-
B]-------16-14-16-14s16----
G]-------------------------

Then…

G]-------------
D]-4---6---8---
A]-4---6---8---
E]-2---4---6--- x3

Repeat the chorus part

Then finish with

G]-------------6—-8-
D]-4—-4—-6-—6--6--8-
A]-4--4--6--6—-4-—6-
E]-2—-2-—4--4------- x2

Key:

H – hammer on
P – pull off
B – bend
~ - vibrato

That’s it. Sorry I took so long, I got bored and stopped.
PLEASE RATE THE TAB cause the solo took ages.

Peace out.
Abe.


Share "Im The Bomb" by Electric Six


TOP 10 TABS

FRESH NEW TABS

ALL ARTISTS
artist wiki

mp3bear.com
song lyrics / contact us / privacy policy / tabspace toolbar
Copyright © 2004 - 2014 TabSpace.com - All Rights Reserved.
song: im the bomb guitar tabs by electric six

0.019