:: Guitar & Bass Tabs Make Home Page
A B C D E F G H I J K L M N O P Q R S T U V W X Y Z #

  for    

On TABSPACE
Info About This Tab
Artist: Evanescence
Tab Type: Guitar
Rate This Tab!
Band:Evanecsece
Song Title:Imaginary
Album:Fallen
Year:2003
Tuneing:
6:B
5:E
4:A
3:D
2:G
1:B
Tempo:Moderatly Slow 72
Intro:Elec.Gtr.1
B:-----------------------------------------------------------------
G:-----------------------------------------------------------------
D:---2--2--2----2---2----2--2----2----2----------------------------
A:---2--2--2----2---2----2--2----2----2---3--3--3----3---3----3--3-
E:---0--0--0----0---0----0--0----0----0---3--3--3----3---3----3--3-
B:----------------------------------------1--1--1----1---1----1--1-

B:-----------------------------------------------------------------
G:-----------------------------------------------------------------
D:-----H-------2--2--2----2---2----2--2----2----2------------------
A:----3/5------2--2--2----2---2----2--2----2----2---3--3--3----3---
E:----3/5------0--0--0----0---0----0--0----0----0---3--3--3----3---
B:-0--1/3---0---------------------------------------1--1--1----1---
       P                      

B:-----------------------------------------------------------------
G:-----------------------------------------------------------------
D:----------------B1/2---------------------------------------------
A:-3----3--3------2----(2)-----------------------------------------
E:-3----3--3-------------------------------------------------------
B:-1----1--1-------------------------------------------------------

Verse:Acous.Gtr.
B:-0--0--0--0--0---0---0--0---0--0---0---0--0--0--0---2--2--2--2--2
G:-0--0--0--0--0---0---0--0---0--0---0---0--0--0--0---3--3--3--3--3
D:-0--0--0--0--0---0---0--0---0--0---0---0--0--0--0---2--2--2--2--2
A:-2--2--2--2--2---2---2--2---2--2---2---2--2--2--2---0--0--0--0--0
E:-2--2--2--2--2---2---2--2---2--2---2---2--2--2--2----------------
B:-0--0--0--0--0---0---0--0---0--0---0---0--0--0--0----------------

B:---2---2--2---2--2---2---2--2--2--2--2-
G:---3---3--3---3--3---3---3--3--3--3--3-
D:---2---2--2---2--2---2---2--2--2--2--2-
A:---0---0--0---0--0---0---0--0--0--0--0-
E:---------------------------------------
B:---------------------------------------

Chorus:Elec.Gtr.

B:-----------------------------------------------------------------
G:-----------------------------------------------------------------
D:---2--2--2----2---2----2--2----2----2----------------------------
A:---2--2--2----2---2----2--2----2----2---3--3--3----3---3----3--3-
E:---0--0--0----0---0----0--0----0----0---3--3--3----3---3----3--3-
B:----------------------------------------1--1--1----1---1----1--1-

B:-----------------------------------------------------------------
G:-----------------------------------------------------------------
D:-----H-------2--2--2----2---2----2--2----2----2------------------
A:----3/5------2--2--2----2---2----2--2----2----2---3--3--3----3---
E:----3/5------0--0--0----0---0----0--0----0----0---3--3--3----3---
B:-0--1/3---0---------------------------------------1--1--1----1---
       P                      

B:-----------------------------------------------------------------
G:-----------------------------------------------------------------
D:-----------------------------------------------------------------
A:-3----3--3----2--0-----------------------------------------------
E:-3----3--3----------3--2-----------------------------------------
B:-1----1--1-------------------------------------------------------

End Of Verse:(Contiue Chords Twice With Out Part Up Here)
B:-----------------------
G:-----------------------
D:-----------------------
A:-----------------------
E;--7----5----3----2-----
B:/----------------------

Interlude:Acous.Gtr.
B:----------0-----------0------------0----------0---------0--------0--
G:--8-----------8---8-------8---8--------8----------8---8-----8---8---
D:------11---------------11-------11---------11-------------11------11
A:9---------------9-----------9--------10------------10---------10----
E:--------------------------------------------------------------------
B:--------------------------------------------------------------------

Bridge:Acous.Gtr.X4
B:----------0-----------0------------0----------0---------0--------0--
G:--8-----------8---8-------8---8--------8----------8---8-----8---8---
D:------11---------------11-------11---------11-------------11------11
A:9---------------9-----------9--------10------------10---------10----
E:--------------------------------------------------------------------
B:--------------------------------------------------------------------

Elec.Gtr.2 W.Wah
B:--------------------------------------
G:--------------------------------------
D:---------------------2--2--2----------
A:--2--2--2--4----5-------------5-----4-
E:--------------------------------------
B:--------------------------------------

Elec.Gtr.1 W/Wah
B:--------------------------------------------------------------------
G:--------------------------------------------------------------------
D:--------------------------------------------------------------------
A:--------------------------------------------------------------------
E:-----------------------------0--0--0--2----3-----5--5--5--3-----2---
B:-----0--0--0--0--1--0--1--0-------------------5--------------------0

B:--------------------------------------------------------------------
G:--------------------------------------------------------------------
D;-----------------------2--2--2--------------------------------------
A:---2--2--2----4-----5-----------5-----4----2--2--2----4-----5-------
E:--------------------------------------------------------------------
B:--------------------------------------------------------------------

B:--------------------------------------------------------------------
G:--------------------------------------------------------------------
D:--------------------------------------------------------------------
A:--------------------------------------------------------------------
E:---0--0--0--2----3----------------------------0--0--0--0--2----3----
B:--------------------0--1--1--1--0-----3-----0---------------------0-

B:--------------------------------------------------------------------
G:--------------------------------------------------------------------
D:----------------------------------------------2--2--2---------------
A:---------------------------2--2--2--4-----5------------5-----4------
E:--5--5--5--5--3----2------------------------------------------------
B:-----------------------0--------------------------------------------

B:--------------------------------------------------------------------
G:--------------------------------------------------------------------
D:--5-----------------------5-----------5-----7-----------------------
A:--5-----------------------5-----------5-----7-----------------------
E:--3-----------------------3-----------3-----5---0--0--0--2----3-----
B:----------------------------------------------------------------0--1

B:--------------------------------------------------------------------
G:--------------------------------------------------------------------
D:--------------------------------------------------------------------
A:------------------------3-----3-----3---3----3----3---5-------------
E:------------------------3-----3-----3---3----3----3---5-------------
B:--1--1--0-----3----0----1-----1-----1---1----1----1---3----0--------

Outro.
B:-----------------------------------------------------------------
G:-----------------------------------------------------------------
D:---2--2--2----2---2----2--2----2----2----------------------------
A:---2--2--2----2---2----2--2----2----2---3--3--3----3---3----3--3-
E:---0--0--0----0---0----0--0----0----0---3--3--3----3---3----3--3-
B:----------------------------------------1--1--1----1---1----1--1-

B:-----------------------------------------------------------------
G:-----------------------------------------------------------------
D:-----H-------2--2--2----2---2----2--2----2----2------------------
A:----3/5------2--2--2----2---2----2--2----2----2---3--3--3----3---
E:----3/5------0--0--0----0---0----0--0----0----0---3--3--3----3---
B:-0--1/3---0---------------------------------------1--1--1----1---
       P                      

B:-----------------------------------------------------------------
G:-----------------------------------------------------------------
D:----------------B1/2--------------------------------------H------
A:-3----3--3------2----(2)----3--3--3----3----3----3--3----3/5-----
E:-3----3--3------------------3--3--3----3----3----3--3----3/5-----
B:-1----1--1------------------1--1--1----1----1----1--1----1/3--0--
                                                            P      
B:----------
G:----------
D:----------
A:--2-------
E:--2-------
B:--0-------


Share "Imaginary" by Evanescence


TOP 10 TABS

FRESH NEW TABS

ALL ARTISTS
artist wiki

mp3bear.com
song lyrics / contact us / privacy policy / tabspace toolbar
Copyright 2004 - 2014 TabSpace.com - All Rights Reserved.
song: imaginary guitar tabs by evanescence

0.002