:: Guitar & Bass Tabs Make Home Page
A B C D E F G H I J K L M N O P Q R S T U V W X Y Z #

  for    

On TABSPACE
Info About This Tab
Artist: Tokio Hotel
Tab Type: Guitar
Tuning: Half-Step Down
Rate This Tab!
Beautiful song! =]
if you want to watch my video as a reference the link's here:
http://www.youtube.com/watch?v=Ql0BNvzXqss
Enjoy!

Tuning: 1/2 step down! (e♭, a♭, d♭, g♭, b♭, e♭)

Intro:
e|--------------|--------------|--------------|--------------|
b|------0-----4-|------0-----0-|------0-----0-|------0-----0-|
g|------4-----0-|------4-----4-|------4-----4-|------4-----4-|
d|--------------|--------------|--------------|--------------|
a|--------------|--------------|--2-2---2-2---|--2-2---2-2---|
e|--4-4---4-4---|--0-0---0-0---|--------------|--------------|  x2

Verse 1:
e|--------------|--------------|--------------|--------------|
b|------0-----4-|------0-----0-|------0-----0-|------0-----0-|
g|------4-----0-|------4-----4-|------4-----4-|------4-----4-|
d|--------------|--------------|--------------|--------------|
a|--------------|--------------|--2-2---2-2---|--2-2---2-2---|
e|--4-4---4-4---|--0-0---0-0---|--------------|--------------|  x4
             I    Hate        my      life     I can’t… 

e|--------------|--------------|--------------|--------------|
b|------0-----4-|------0-----0-|------0-----0-|------0-----0-|
g|------4-----0-|------4-----4-|------4-----4-|------4-----4-|
d|--------------|--------------|--------------|--------------|
a|--------------|--------------|--------------|--6-6---6-6---|
e|--0-0---0-0---|--2-2---2-2---|--4-4---4-4---|--------------|
 out of touch out of time just get lost without a sign as long as

e|--------------|--------------|
b|------0-----4-|------0-----0-|
g|------4-----0-|------4-----4-|
d|--------------|--------------|
a|--------------|--------------|
e|--0-0---0-0---|--2-2---2-2---|
 you’ll stay by my side in your shadow I can

e|--------------|--------------|--------------|--------------|
b|------0-----4-|------0-----0-|------0-----0-|------0-----0-|
g|------4-----0-|------4-----4-|------4-----4-|------4-----4-|
d|--------------|--------------|--------------|--------------|
a|--------------|--------------|--2-2---2-2---|--2-2---2-2---|
e|--4-4---4-4---|--0-0---0-0---|--------------|--------------|
shine…

e|--------------|--------------|
b|------0-----4-|------0-----0-|
g|------4-----0-|------4-----4-|
d|--------------|--------------|
a|--------------|--------------|
e|--4-4---4-4---|--0-0---0-0---|


Verse 2:
e|--------------|--------------|--------------|--------------|
b|------0-----4-|------0-----0-|------0-----0-|------0-----0-|
g|------4-----0-|------4-----4-|------4-----4-|------4-----4-|
d|--------------|--------------|--------------|--------------|
a|--------------|--------------|--2-2---2-2---|--2-2---2-2---| 
e|--4-4---4-4---|--0-0---0-0---|--------------|--------------| x2
	you see my soul…

e|--------------|--------------|--------------|--------------|
b|------0-----4-|------0-----0-|------0-----0-|------0-----0-|
g|------4-----0-|------4-----4-|------4-----4-|------4-----4-|
d|--------------|--------------|--------------|--------------|
a|--------------|--------------|--------------|--6-6---6-6---|
e|--0-0---0-0---|--2-2---2-2---|--4-4---4-4---|--------------|
 into the dark..

e|--------------|--------------|
b|------0-----4-|------0-----0-|
g|------4-----0-|------4-----4-|
d|--------------|--------------|
a|--------------|--------------|
e|--0-0---0-0---|--2-2---2-2---|
 you’re the sun and I’m the moon


Chorus 2:
e|---------------|---------------|---------------|---------------|
b|---------------|---------------|---------------|---------------|
g|---------------|---------------|---------------|---------------|
d|---------------|---------------|---------------|---------------|
a|---------------|---------------|2-2-2-2-2-2-2-2|6-6-6-6-6-6-6-6|
e|4-4-4-4-4-4-4-4|0-0-0-0-0-0-0-0|---------------|---------------|

e|---------------|---------------|---------------|---------------|
b|---------------|---------------|---------------|---------------|
g|---------------|---------------|---------------|---------------|
d|---------------|---------------|---------------|---------------|
a|---------------|---------------|---------------|---------------|
e|4-4-4-4-4-4-4-4|0-0-0-0-0-0-0-0|2-2-2-2-2-2-2-2|2-2-2-2-2-2-2-2|


Bridge:
e|---------------|---------------|---------------|---------------|
b|---------------|---------------|---------------|---------------|
g|---------------|---------------|---------------|---------------|
d|6-6-6-6-6-6-6-6|2-2-2-2-2-2-2-2|4-4-4-4-4-4-4-4|4-4-4-4-4-4-4-4|
a|4-4-4-4-4-4-4-4|0-0-0-0-0-0-0-0|2-2-2-2-2-2-2-2|2-2-2-2-2-2-2-2|
e|---------------|---------------|---------------|---------------| x2

Chorus 3:
e|---------------|---------------|---------------|---------------|
b|---------------|---------------|---------------|---------------|
g|---------------|---------------|---------------|---------------|
d|6-6-6-6-6-6-6-6|2-2-2-2-2-2-2-2|4-4-4-4-4-4-4-4|---------------|
a|4-4-4-4-4-4-4-4|0-0-0-0-0-0-0-0|2-2-2-2-2-2-2-2|6-6-6-6-6-6-6-6|
e|---------------|---------------|---------------|4-4-4-4-4-4-4-4|

e|---------------|---------------|---------------|---------------|
b|---------------|---------------|---------------|---------------|
g|---------------|---------------|---------------|---------------|
d|6-6-6-6-6-6-6-6|2-2-2-2-2-2-2-2|4-4-4-4-4-4-4-4|4-4-4-4-4-4-4-4|
a|4-4-4-4-4-4-4-4|0-0-0-0-0-0-0-0|2-2-2-2-2-2-2-2|2-2-2-2-2-2-2-2|
e|---------------|---------------|---------------|---------------|

e|---------------|---------------|---------------|---------------|
b|---------------|---------------|---------------|---------------|
g|---------------|---------------|---------------|---------------|
d|6-6-6-6-6-6-6-6|2-2-2-2-2-2-2-2|4-4-4-4-4-4-4-4|---------------|
a|4-4-4-4-4-4-4-4|0-0-0-0-0-0-0-0|2-2-2-2-2-2-2-2|6-6-6-6-6-6-6-6|
e|---------------|---------------|---------------|4-4-4-4-4-4-4-4|

e|---------------|---------------|---------------|---------------|
b|---------------|---------------|---------------|---------------|
g|---------------|---------------|---------------|---------------|
d|6-6-6-6-6-6-6-6|2-2-2-2-2-2-2-2|4-4-4-4-4-4-4-4|4-4-4-4-4-4-4-4|
a|4-4-4-4-4-4-4-4|0-0-0-0-0-0-0-0|2-2-2-2-2-2-2-2|2-2-2-2-2-2-2-2|
e|---------------|---------------|---------------|---------------|



Share "In Your Shadow I Can Shine" by Tokio Hotel


TOP 10 TABS

FRESH NEW TABS

ALL ARTISTS
artist wiki

mp3bear.com
song lyrics / contact us / privacy policy / tabspace toolbar
Copyright © 2004 - 2014 TabSpace.com - All Rights Reserved.
song: in your shadow i can shine guitar tabs by tokio hotel

0.01