:: Guitar & Bass Tabs Make Home Page
A B C D E F G H I J K L M N O P Q R S T U V W X Y Z #

  for    

On TABSPACE
Info About This Tab
Artist: Caedmons Call
Tab Type: Guitar
Difficulty: intermediate
Rate This Tab!
-------------------------------------------------------------------------------
			     International Love Song - Caedmons Call
-------------------------------------------------------------------------------
Tabbed by: G.S. Westervelt
Email:

Tuning:standard; put capo on 6th fret
        Intro
  x5        x5          x5          x5          x3
e|-1--------1--------1--------1---------1------------------------------------|
B|-3--------3--------3--------3---------3------------------------------------|
G|-3--------0--------3--------0---------2------------------------------------|
D|---------------------------------------------------------------------------|
A|---------------------------------------------------------------------------|
E|---------------------------------------------------------------------------| I'm not 
the strum pattern so you'll have to listen to the song to get that right. play intro
once more to start the first verse then play the following.   "can i have your headband......"
      x5      x5      x5      x5     x3
e|-1-------1-------1-------1-------1-------------------------------------------|
B|-3-------3-------3-------3-------3-------------------------------------------|
G|-3-------0-------5-------3-------2-------------------------------------------|
D|-----------------------------------------------------------------------------|
A|-----------------------------------------------------------------------------|
E|-----------------------------------------------------------------------------|
     "I'm a soul that wonders..."

      x3     x3      x5      strum
e|-1-------6-------1-------1---------------------------------------------------|
B|-3-------8-------3-------3---------------------------------------------------|
G|-3-------8-------3-------2---------------------------------------------------|
D|-----------------------------------------------------------------------------|
A|-----------------------------------------------------------------------------|
E|-----------------------------------------------------------------------------|
 Chorus
     x12     x12      x12    x12     x5     x3
e|-1-------1-------1-------1-------1-------1---------------------------------|
B|-3-------3-------3-------3-------3-------3---------------------------------|
G|-3-------5-------3-------5-------2-------0---------------------------------|
D|-----------------------------------------3---------------------------------|
A|---------------------------------------------------------------------------|
E|---------------------------------------------------------------------------|
           Verse 2
  "freckles on you forehead..."
     x1     x5       x5      x5       x3      x5      x5     x5      x3
e|-1-------1-------1-------1-------1-------1-------1-------1-------1-----------|
B|-3-------3-------3-------3-------3-------3-------3-------3-------3-----------|
G|-3-------0-------3-------0-------2-------3-------0-------5-------2-----------|
D|-----------------------------------------------------------------------------|
A|-----------------------------------------------------------------------------|
E|-----------------------------------------------------------------------------|
 "I'm a thumb that wonders...."

    x3       x3      x5       till end
e|-1-------6-------1-------1---------------------------------------------------|
B|-3-------8-------3-------3---------------------------------------------------|
G|-3-------8-------3-------2---------------------------------------------------|
D|-----------------------------------------------------------------------------|
A|-----------------------------------------------------------------------------|
E|-----------------------------------------------------------------------------|
 Chorus

    x12     x12     x12      x12
e|-1-------1-------1-------1---------------------------------------------------|
B|-3-------3-------3-------3---------------------------------------------------|
G|-3-------5-------3-------5---------------------------------------------------|
D|-----------------------------------------------------------------------------|
A|-----------------------------------------------------------------------------|
E|-----------------------------------------------------------------------------|
   Pre-Bridge x2 (this is the only part that's a little off)
                       strum
e|-1-------1-------1-----------------------------------------------------------|
B|-3-------3-------3-----------------------------------------------------------|
G|-3-------0-------2-----------------------------------------------------------|
D|-----------------------------------------------------------------------------|
A|-----------------------------------------------------------------------------|
E|-----------------------------------------------------------------------------|
  break x4

e|-3-1-3-1-1-1-1-------------------------------------------------------------|
B|-3-3-3-3-3-3-3-------------------------------------------------------------|
G|-3-3-3-3-3-3-3-------------------------------------------------------------|
D|---------------------------------------------------------------------------|
A|---------------------------------------------------------------------------|
E|---------------------------------------------------------------------------|
   repeat the pre- Chorus and the chorus again ending with the intro and your
   done. i hope this tab was useful. it should be 97% accurate. have fun and
    give glory to God.


Share "International Love Song" by Caedmons Call


TOP 10 TABS

FRESH NEW TABS

ALL ARTISTS
artist wiki

mp3bear.com
song lyrics / contact us / privacy policy / tabspace toolbar
Copyright 2004 - 2014 TabSpace.com - All Rights Reserved.
song: international love song guitar tabs by caedmons call

0.015