:: Guitar & Bass Tabs Make Home Page
A B C D E F G H I J K L M N O P Q R S T U V W X Y Z #

  for    

On TABSPACE
Info About This Tab
Artist: Paramita
Tab Type: Guitar
Rate This Tab!
Title: Isang Dangkal (For LEad)
Artist: Paramita
Tabbed by: Galera, MArk Jesson
Cel #. 09198408399

             This A new Song of Apo Hiking SOciety To their new Album
                   "kami Napo Muna ULIT"
           Support ALL THeir songs..OPM RULES

Tuning: Standard

Intro:

e-------------------------------------------|
b-------------------------------------------|
g-------------------------------------------|
D-------------------------------------------|
A--7h8-77-7h8-77-7h8-7-2h3--22--------------|
E----------------------------------7h5h4----|

Verse:

e--------------------------------------|
b-----6------------6-------------------|
g---5---5---5-5--5---------------------|
D-3-------3-----3----------------------|
A--------------------------------------|
E--------------------------------------|

Refrain:

e--------------------------------------|
b--------------------------------------|
g--------------------------------------|
D------10101010---------1010101010-----|
A-777-------------77777----------------|
E--------------------------------------|


Chorus:

e-----------------------------------------------------------------------|
b-----------------------------------------------------------------------|
g-1010101010--999999---77777--55555--10101010---99999----------777777---|
D------------------------------------------------------101010-----------|
A-----------------------------------------------------------------------|
E-----------------------------------------------------------------------|

Verse:

e--------------------------------------|
b-----6------------6-------------------|
g---5---5---5-5--5---------------------|
D-3-------3-----3----------------------|
A--------------------------------------|
E--------------------------------------|

Refrain:

e--------------------------------------|
b--------------------------------------|
g--------------------------------------|
D------10101010---------1010101010-----|
A-777-------------77777----------------|
E--------------------------------------|



Chorus:

e-----------------------------------------------------------------------|
b-----------------------------------------------------------------------|
g-1010101010--999999---77777--55555--10101010---99999----------777777---|
D------------------------------------------------------101010-----------|
A-----------------------------------------------------------------------|
E-----------------------------------------------------------------------|


Share "Isang Dangkal" by Paramita


TOP 10 TABS

FRESH NEW TABS

ALL ARTISTS
artist wiki

mp3bear.com
song lyrics / contact us / privacy policy / tabspace toolbar
Copyright 2004 - 2014 TabSpace.com - All Rights Reserved.
song: isang dangkal guitar tabs by paramita

0.019