:: Guitar & Bass Tabs Make Home Page
A B C D E F G H I J K L M N O P Q R S T U V W X Y Z #

  for    

On TABSPACE
Info About This Tab
Artist: Wasp
Tab Type: Guitar
Rate This Tab!
++++++++++++++++++++++++++++++++++++++++++++++++++++++++++++++++++++++++++++
Jack Action - W.A.S.P.
++++++++++++++++++++++++++++++++++++++++++++++++++++++++++++++++++++++++++++

Transcribed by Laz 


Intro/Verse Riff
|-----------------------------------------------------------|
|-----------------------------------------------------------|
|----------------------------------4b-4b-2~-----------------|
|----------------------------------4b-4b-2~-----2---2-4~----|
|--4-4-4-4-4-4-4-4-4-4-4-4-4-4-4-4-----------/4---4---------|
|--2-2-2-2-2-2-2-2-2-2-2-2-2-2-2-2--------------------------| x8
pm . . . . . . . . . . . . . . . .

Pre Chorus ("Well I'm looking for...looking for...")
|----------------------|
|----------------------|
|----7-7~------4-4~----|
|----7-7~------4-4~----|
|--5-5-5~----2-2-2~----|
|----------------------|
pm .         .

Chorus ("Looking for Jack Action...")   ("Looking, looking...")
|--------------|                        |------------------|
|--------------|                        |------------------|
|--------2~----|                        |----7~------------|
|--2~----2~----|                        |----7~------7~----|
|--2~----0~----|                        |--5-5~------7~----|
|--0~----------| x3                     |----------5-5~----|
pm                                         .       .

*Repeat all above*

Bridge ("Ohhhh no...a man with a war to wage....")
|---------------------------------------------------------------------
|---------------------------------------------------------------------
|---------------------------------------------------------------------
|--------------------5---2-0---5-2-------------------5---2-0h2-5-2----
|--------------------5---2-0h2---2-------------------5---2-0h2-5-2----
|--0-0-0-0-0-0-0-0-0---0-----------0-0-0-0-0-0-0-0-0---0--------------
pm . . . . . . . . .   .           . . . . . . . . .   .

----------------------------------------------------------------------|
----------------------------------------------------------------------|
-----------------------------------2~----------------7~---------------|
---------------------5---2-0---5-2-2~----------------7~--5------------|
---------------------5---2-0h2---2-0~----------------5~--5------------|
---0-0-0-0-0-0-0-0-0---0---------------------------------3------------|
pm . . . . . . . . .   .

Rythm under Solo
|---------------------------------------------------------|
|---------------------------------------------------------|
|---------------------------------------2~----7~----------|
|---------------------------------------2~----7~----5~----|
|------------------5/2------------------0~----5~----5~----|
|--0-0-0-0-0--etc--3/0--0-0-0-0-0--etc--------------3~----| repeat x times
pm . . . . .            . . . . .

Solo End
|-------|
|-------|
|--(4)--|
|--(4)--|
|--(2)--|
|-------|

Verse 3 ("Jack Action...where are you?")
|-----------------------------------------------------------|
|-----------------------------------------------------------|
|----------------------------------2b-2b-0~-----------------|
|----------------------------------2b-2b-0~-----0---0-2~----|
|--------------------------------------------/2---2---------|
|--0-0-0-0-0-0-0-0-0-0-0-0-0-0-0-0--------------------------| x4
pm . . . . . . . . . . . . . . . .

Pre Chorus 3 ("Looking for...looking for...")
|----------------------|
|----------------------|
|----------------------|
|----5-5~------4-4~----|
|----5-5~------4-4~----|
|--3-3-3~----2-2-2~----|
pm .         .

Chorus

Ending
|----------------------------|
|----------------------------|
|----2b-2b-0-----------------|
|----2b-2b-0-----0---0-2~----|
|-------------/2---2---------|
|--0-------------------------| x4


Share "Jack Action" by Wasp


TOP 10 TABS

FRESH NEW TABS

ALL ARTISTS
artist wiki

mp3bear.com
song lyrics / contact us / privacy policy / tabspace toolbar
Copyright 2004 - 2014 TabSpace.com - All Rights Reserved.
song: jack action guitar tabs by wasp

0.003