:: Guitar & Bass Tabs Make Home Page
A B C D E F G H I J K L M N O P Q R S T U V W X Y Z #

  for    

On TABSPACE
Info About This Tab
Artist: Eddie Cochran
Tab Type: Guitar
Rate This Tab!
Eddie Cochran
Jeannie, Jeannie, Jeannie
172 bpm
maybe some slight pm
standart tuning 
Amp setting: treble: 4
             mid: 5
             bass: 5
             gain: 3/4
Intro

E|-----------------------------------------------------------|
H|-----------------------------------------------------------|
G|--------------2--2-----------------------------------------|
D|-------1---1--2--2--1-----1---------1-----1----------------|
A|-----1---4------------4-4---4-----1---4-4------4-4-4-4-4-4-|
E|-2-2--------------------------2-2-----------2--------------|

Verse
   
E|-----------------------------------------------------------|
H|-----------------------------------------------------------|
G|-----------------------------------------------------------|
D|---------------------------------------1---1-2-2--1--------|
A|-4-4-6-6-4-4-6-6-4-4-6-6-4-4-6-6-----1---4----------4--1---|
E|-2-2-2-2-2-2-2-2-2-2-2-2-2-2-2-2---2-----------------------|

E|-----------------------------------------------------------|
H|-----------------------------------------------------------|
G|-----------------------------------------------------------|
D|---------------------------------------1---1-2-2--1--------|
A|-4-4-6-6-4-4-6-6-4-4-6-6-4-4-6-6-----1---4----------4--1---|
E|-2-2-2-2-2-2-2-2-2-2-2-2-2-2-2-2---2-----------------------|

E|--------------------------------------------------------------|
H|--------------------------------------------------------------|
G|--------------------------------------------------------------|
D|-4-4-6-6-4-4-6-6-4-4-6-6-4-4-6--------------------------------|
A|-2-2-2-2-2-2-2-2-2-2-2-2-2-2-2—-4-4-6-6-4-4-----4-4-6-6-4-4-6-|
E|--------------------------------2-2-2-2-2-2-5h6—2-2-2-2-2-2-2-|

E|-----------------------------------------------------------|
H|-----------------------------------------------2-2-2-2-2-2-|
G|-----------------------------------------------4-4-4-4-4-4-|
D|-6-6-6-6--6-6---4-4-4-4--4-4-------------------3-3-3-3-3-3-|
A|-4-4-4-4--4-4---2-2-2-2--2-2--4-4-6-6-4-4-6-6—-4-4-4-4-4-4-|
E|------------------------------2-2-2-2-2-2-2-2--------------|

E|-----------------------------------------------------------|
H|-----------------------------------------------------------|
G|-----------------------------------------------------------|
D|---------------------------------------1---1-2-2--1--------|
A|-4-4-6-6-4-4-6-6-4-4-6-6-4-4-6-6-----1---4----------4--1---|
E|-2-2-2-2-2-2-2-2-2-2-2-2-2-2-2-2---2-----------------------|

E|-----------------------------------------------------------|
H|-----------------------------------------------------------|
G|-----------------------------------------------------------|
D|---------------------------------------1---1-2-2--1--------|
A|-4-4-6-6-4-4-6-6-4-4-6-6-4-4-6-6-----1---4----------4--1---|
E|-2-2-2-2-2-2-2-2-2-2-2-2-2-2-2-2---2-----------------------|

E|--------------------------------------------------------------|
H|--------------------------------------------------------------|
G|--------------------------------------------------------------|
D|-4-4-6-6-4-4-6-6-4-4-6-6-4-4-6--------------------------------|
A|-2-2-2-2-2-2-2-2-2-2-2-2-2-2-2—-4-4-6-6-4-4-----4-4-6-6-4-4-6-|
E|--------------------------------2-2-2-2-2-2-5h6—2-2-2-2-2-2-2-|

E|------------------------------------------------------------|
H|------------------------------------------------------------|
G|------------------------------------------------------------|
D|-6-6-6-6--6-6---4-4-4-4--4-4--------------------------------|
A|-4-4-4-4--4-4---2-2-2-2--2-2--4-4-6-6-4-4-6---4-4-6-6-4-4-4-|
E|------------------------------2-2-2-2-2-2-2-6-2-2-2-2-2-2-2-|

Bridge

E|---------------------------------------------------------------|
H|---------------------------------------------------------------|
G|---------------------------------------------------------------|
D|-4-4-6-6-4-4-6-6-4-4-6-6-4-4-6-4-------------------------------|
A|-2-2-2-2-2-2-2-2-2-2-2-2-2-2-2-2—4-4-6-6-4-4-6-6-4-4-6-6-4-4---|
E|---------------------------------2-2-2-2-2-2-2-2-2-2-2-2-2-2-6-|

E|------------------------------------------------------------------------|
H|--------------------------------2--------------------------------2--2---|
G|--------------------------------4--------------------------------4--4---|
D|-4-4-6-6-4-4-6-6-4-4-6-6-4-4-6—-3---------------------------------------|
A|-2-2-2-2-2-2-2-2-2-2-2-2-2-2-2—-4---------------------------------------|
E|------------------------------------------------------------------------|
 
Verse
 
E|-----------------------------------------------------------|
H|-----------------------------------------------------------|
G|-----------------------------------------------------------|
D|---------------------------------------1---1-2-2--1--------|
A|-4-4-6-6-4-4-6-6-4-4-6-6-4-4-6-6-----1---4----------4--1---|
E|-2-2-2-2-2-2-2-2-2-2-2-2-2-2-2-2---2-----------------------|

E|-----------------------------------------------------------|
H|-----------------------------------------------------------|
G|-----------------------------------------------------------|
D|---------------------------------------1---1-2-2--1--------|
A|-4-4-6-6-4-4-6-6-4-4-6-6-4-4-6-6-----1---4----------4--1---|
E|-2-2-2-2-2-2-2-2-2-2-2-2-2-2-2-2---2-----------------------|

E|--------------------------------------------------------------|
H|--------------------------------------------------------------|
G|--------------------------------------------------------------|
D|-4-4-6-6-4-4-6-6-4-4-6-6-4-4-6--------------------------------|
A|-2-2-2-2-2-2-2-2-2-2-2-2-2-2-2—-4-4-6-6-4-4-----4-4-6-6-4-4-6-|
E|--------------------------------2-2-2-2-2-2-5h6—2-2-2-2-2-2-2-|

E|-----------------------------------------------------------|
H|-----------------------------------------------2-2-2-2-2-2-|
G|-----------------------------------------------4-4-4-4-4-4-|
D|-6-6-6-6--6-6---4-4-4-4--4-4-------------------3-3-3-3-3-3-|
A|-4-4-4-4--4-4---2-2-2-2--2-2--4-4-6-6-4-4-6-6—-4-4-4-4-4-4-|
E|------------------------------2-2-2-2-2-2-2-2--------------|

Solo

E|-2-2-2-2-2-2-2-2-2—-2—---2-2-2-2-(2)-2-2-2-2-2-2-2-(2)-|
H|-2-2-2-2-2-2-2-2-4hb-4hb-2-2-2-2-(2)-2-2-2-2-2-2-2-(2)-|
G|-----3-------------------------2-h3—-3-3-3-3-3-3-2-h3--|
D|-------------------------------------------------------|
A|-------------------------------------------------------|
E|-------------------------------------------------------|

E|-2-2-2-2-2-2-2-2-2-2-2-2-2-2-2-2---2---2-2-2-2-(2)---|
H|-2-2-2-2-2-2-2-2-2-2-2-2-2-4-2-4qb-4qb-2-2-2-2—(2)---|
G|-3-3-3-3-3-3-3---3---------------------------2-h3----|
D|-----------------------------------------------------|
A|-----------------------------------------------------|
E|-----------------------------------------------------|

E|-2-2-2-2-2-2-2-(2)-2-2-2-2-2-2-2---7-7-7-7---7-7-|
H|-2-2-2-2-2-2-2-(2)-2-2-2-2-2-2-2---7-9-7-9hb-9-9-|
G|-3-3-3-3-3-3-2-h3--3-3-3-3-3-3-3/8---------------|
D|-------------------------------------------------|
A|-------------------------------------------------|
E|-------------------------------------------------|

(from now on all bends are pre bends!)
E|-7-7-7-7-7---7-7---7----9--9—-9----9—-9----9—-9----9—-9----9—-9----9----9----|
H|-9-9-9-9-9hb-9-9hb-9/10-10-10-10hb-10-10hb-10-10hb-10-10hb-10-10hb-10hb-10hb-|
G|-----------------------------------------------------------------------------|
D|-----------------------------------------------------------------------------|
A|-----------------------------------------------------------------------------|
E|-----------------------------------------------------------------------------|

E|------9-9--9-9--9--9-----7-7-7-7-7---7-7-6-6-6-6-6-|
H|------9-11-9-11-11-9-----7-9-7-9-9hb-9-9-7-7-7-7-7-|
G|-8/10----------------6/8---------------------------|
D|---------------------------------------------------|
A|---------------------------------------------------|
E|---------------------------------------------------|

Verse

E|-----------------------------------------------------------|
H|-----------------------------------------------------------|
G|-----------------------------------------------------------|
D|---------------------------------------1---1-2-2--1--------|
A|-4-4-6-6-4-4-6-6-4-4-6-6-4-4-6-6-----1---4----------4--1---|
E|-2-2-2-2-2-2-2-2-2-2-2-2-2-2-2-2---2-----------------------|

E|-----------------------------------------------------------|
H|-----------------------------------------------------------|
G|-----------------------------------------------------------|
D|---------------------------------------1---1-2-2--1--------|
A|-4-4-6-6-4-4-6-6-4-4-6-6-4-4-6-6-----1---4----------4--1---|
E|-2-2-2-2-2-2-2-2-2-2-2-2-2-2-2-2---2-----------------------|

E|--------------------------------------------------------------|
H|--------------------------------------------------------------|
G|--------------------------------------------------------------|
D|-4-4-6-6-4-4-6-6-4-4-6-6-4-4-6--------------------------------|
A|-2-2-2-2-2-2-2-2-2-2-2-2-2-2-2—-4-4-6-6-4-4-----4-4-6-6-4-4-6-|
E|--------------------------------2-2-2-2-2-2-5h6—2-2-2-2-2-2-2-|

E|-------------------------------2—-2-----------2--|
H|-------------------------------2—-2--4--4--4--2--|
G|-------------------------------3—-3—-4—-4—-4--3--|
D|-6-6-6-6--6-6---4-4-4-4--4-4---4—-4—-4—-4--4—-4--|
A|-4-4-4-4--4-4---2-2-2-2--2-2---4—-4—-2-—4—-4—-4--|
E|-------------------------------2—-2-----------2--|
                                 ^  ^           ^ 

lyrics:

Well,
Jeannie, Jeannie, Jeannie come and dance with me
Well, i teach you ev’ry dance from here and ‘cross the sea
Well, now first we hop 
yeah, yeah, yeah,then we bop,
Yeah, yeah, yeah then we slop or rock’n’roll well do the stroll

Well, 
Jeannie, Jeannie, Jeannie got my blue suede shoes
A pink car-nation and my black slacks too
Well first we hop 
yeah, yeah, yeah, then we bop
Yeah, yeah, yeah then we slop or rock’n’roll well do the stroll

Well, 
Babe, babe, you will have to wait I’ll ready at eight
I keep a knockin’ at your front door
All the cats are hoppin’ at the big five four

Jeannie, Jeannie, Jeannie when we reach the hall
awell, we rock around the clock and really have a ball
well, now first we hop 
yeah, yeah, yeah then we bop
Yeah, yeah, yeah then we slop or rock’n’roll well do the stroll

(Solo)

well, Jeannie, Jeannie, Jeannie when we reach the hall
awell, we rock around the clock and really have a ball
well, now first we hop 
yeah, yeah, yeah then we bop
Yeah, yeah, yeah then we slop or rock’n’roll well do the stroll 

Qb – quarter bend
hb – half bend
^  - staccato 
h  - hammer on
/  - slide up
(x)- let note ring



Share "Jeanie Jeannie Jeannie" by Eddie Cochran


TOP 10 TABS

FRESH NEW TABS

ALL ARTISTS
artist wiki

mp3bear.com
song lyrics / contact us / privacy policy / tabspace toolbar
Copyright © 2004 - 2014 TabSpace.com - All Rights Reserved.
song: jeanie jeannie jeannie guitar tabs by eddie cochran

0.008