:: Guitar & Bass Tabs Make Home Page
A B C D E F G H I J K L M N O P Q R S T U V W X Y Z #

  for    

On TABSPACE
Info About This Tab
Artist: Tokio Hotel
Tab Type: Bass
Difficulty: intermediate
Rate This Tab!
Intro : bass begins with drums

G:|------------------------------------------------------------------|
D:|-11111111------------------------11111111-------------------------|
A:|---------11111111------------------------11111111-----------------|
E:|-----------------3333333344444444----------------3333333344444444-|

Verse :

G:|------------------------------------------------------------------|
D:|-11111111------------------------11111111-------------------------|
A:|---------11111111------------------------11111111-----------------|
E:|-----------------3333333344444444----------------3333333344444444-|

G:|----------------------------------|
D:|----------------------------------|
A:|-1111111133333333-----------------|
E:|-----------------3333333344444444-|

Chorus :

G:|------------------------------------------------------------------|
D:|-11111111------------------------11111111-------------------------|
A:|---------11111111------------------------11111111-----------------|
E:|-----------------3333333344444444----------------3333333344444444-|x2

Verse :

G:|------------------------------------------------------------------|
D:|-11111111------------------------11111111-------------------------|
A:|---------11111111------------------------11111111-----------------|
E:|-----------------3333333344444444----------------3333333344444444-|

G:|----------------------------------|
D:|----------------------------------|
A:|-1111111133333333-----------------|
E:|-----------------3333333344444444-|

Chorus :

G:|------------------------------------------------------------------|
D:|-11111111------------------------11111111-------------------------|
A:|---------11111111------------------------11111111-----------------|
E:|-----------------3333333344444444----------------3333333344444444-|x2

G:|------------------------------------------------------------------|
D:|-11111111------------------------11111111-------------------------|
A:|---------11111111------------------------11111111-----------------|
E:|-----------------3333333344444444----------------3333333344444444-|

Break :

G:|------------------------------------------------------------------|
D:|---------------------------------------------------6-5-3-6-5-3-1--|
A:|-1111111133333333-----------------1111111133333333----------------|
E:|-----------------4444444444444434---------------------------------|

G:|--------------------------------------------|
D:|-------------------------1------------------|
A:|-1-------3------------------------1---------|
E:|-----------------3------------------------3-|

Last Chorus :

G:|------------------------------------------------------------------|
D:|-22222222------------------------22222222-------------------------|
A:|---------22222222------------------------22222222-----------------|
E:|-----------------4444444455555555----------------4444444455555555-|x2

G:|------------------------------------------------------------------|
D:|-22222222------------------------22222222-------------------------|
A:|---------22222222------------------------22222222----------------7|
E:|-----------------4444444455555555----------------4444444455555457-|

That's it. Have fun ^^


Share "Jung Und Nicht Mehr Jugendfrei" by Tokio Hotel


TOP 10 TABS

FRESH NEW TABS

ALL ARTISTS
artist wiki

mp3bear.com
song lyrics / contact us / privacy policy / tabspace toolbar
Copyright 2004 - 2014 TabSpace.com - All Rights Reserved.
song: jung und nicht mehr jugendfrei bass tabs by tokio hotel

0.008