:: Guitar & Bass Tabs Make Home Page
A B C D E F G H I J K L M N O P Q R S T U V W X Y Z #

  for    

On TABSPACE
Info About This Tab
Artist: 360
Tab Type: Bass
Difficulty: intermediate
Rate This Tab!

WARNING: You are trying to view
content from Ultimate-Guitar.com
in an unauthorized application,
which is prohibited.

Please use an official Ultimate
Guitar Tabs application for iPhone,
iPad or Android to access legitimate
chords, guitar, bass, and drum tabs
from Ultimate-Guitar.com database.

Type "ultimate guitar tabs" in Apple
App Store's or Android Market's
search to find the application.
Just Got Started  360 ft. Pez (http://360music.com.au/)
----------------------------------------------------------------------------
Tabbed By: mrb3nbass
E-mail: mrb3nbass@gmail.com

Hey guys this is a really cool bass line to play, I think I tabbed it out pretty well 
but if you have any questions, comments or improvements just leave a comment or send me an email.

Tuning: Standard EADG

Intro: x1
G|--------------------------------------------------------------------------|
D|---------------------------------679----------------------42--------------|
A|-99-75-54-442202-/4--2202-/--99-----7--55-44-2202-/4-2202--4-------------|
E|--------------------------------------------------------------------------|

Verse: x2
G|--------------------------------------------------------------------------|
D|---------------------------------679----------------------42--------------|
A|-99-75-54-442202-/4--2202-/--99-----7--55-44-2202-/4-2202---4------------|
E|--------------------------------------------------------------------------|

4th Time
G|--------------------------------------------------------------------------|
D|----679----------------------42-------------------------------------------|
A|-99------7-55-44-2202-/4-2202--4------------------------------------------|
E|--------------------------------------------------------------------------|

Chorus:

   S P S P S P         S P S P S P
G|---7---4---------------7---4----------------------------------------------|
D|-----------4-------------------4------------------------------------------|
A|-5---2-----------/7--5---2------------------------------------------------|
E|---------2----22-------------2---45420------------------------------------|

   S P S P S P         S P S P S P
G|---7---4---------------7---4----------------------------------------------|
D|-----------4-------------------4------------------------------------------|
A|-5---2-----------/7--5---2----------7-------------------------------------|
E|---------2----22-------------2---454--------------------------------------|

Verse: (careful of the stops and starts)

G|--------------------------------------------------------------------------|
D|---------------------------------679--------------------------------------|
A|-99-75-55-----202-/4--2202-/--99-----7-55-44-2202-/4-2202-----------------|
E|--------------------------------------------------------------------------|

G|--------------------------------------------------------------------------|
D|---------------------------------679---------------------42---------------|
A|-99-75-54-442202-/4--2202-/--99-----7-55-44-2202-/4-2202--4--------------|
E|--------------------------------------------------------------------------|

G|--------------------------------------------------------------------------|
D|--------------------------42----------------------------------------------|
A|-------------2202-/4--2202--4---------------------------------------------|
E|--------------------------------------------------------------------------|

Chorus:

   S P S P S P         S P S P S P
G|---7---4---------------7---4----------------------------------------------|
D|-----------4-------------------4------------------------------------------|
A|-5---2-----------/7--5---2------------------------------------------------|
E|---------2----22-------------2---45420------------------------------------|

   S P S P S P         S P S P S P
G|---7---4---------------7---4----------------------------------------------|
D|-----------4-------------------4------------------------------------------|
A|-5---2-----------/7--5---2----------7-------------------------------------|
E|---------2----22-------------2---454--------------------------------------|

Bridge: x4 (this part may be played in drop D, but it's the same notes)
G|--------------------------------------------------------------------------|
D|--------------------------------------------------------------------------|
A|-5---7---9----------------------------------------------------------------|
E|--------------------------------------------------------------------------|

Rest: 3Bars

4th Time:

G|--------------------------------------------------------------------------|
D|--------------42----------------------------------------------------------|
A|-5---79--12\----2---------------------------------------------------------|
E|--------------------------------------------------------------------------|

Chorus:

   S P S P S P         S P S P S P
G|---7---4---------------7---4----------------------------------------------|
D|-----------4-------------------4------------------------------------------|
A|-5---2-----------/7--5---2------------------------------------------------|
E|---------2----22-------------2---45420------------------------------------|

   S P S P S P         S P S P S P
G|---7---4---------------7---4----------------------------------------------|
D|-----------4-------------------4------------------------------------------|
A|-5---2-----------/7--5---2----------7-------------------------------------|
E|---------2----22-------------2---454--------------------------------------|
       S P S P         S P S P S P
G|-------4---------------7---4----------------------------------------------|
D|-----------4-------------------4------------------------------------------|
A|-----2----------/7---5---2------------------------------------------------|
E|---------2---22--------------2---45420------------------------------------|
   S P S P S P         S P S P S P
G|---7---4---------------7---4----------------------------------------------|
D|-----------4-------------------4------------------------------------------|
A|-5---2-----------/7--5---2------------------------------------------------|
E|---------2----22-------------2--------------------------------------------|

THE END :P


| S  slap
| P  pop
| /  slide up
| \  slide down
| h  hammer-on
| p  pull-off
| ~  vibrato
| +  harmonic
| x  Mute note
=============================================================================


Share "Just Got Started" by 360


TOP 10 TABS

FRESH NEW TABS

ALL ARTISTS
artist wiki

mp3bear.com
TabSpace.com / contact us / privacy policy / tabspace toolbar
Copyright 2004 - 2016 TabSpace.com - All Rights Reserved.
song: just got started bass tabs by 360

0.003