:: Guitar & Bass Tabs Make Home Page
A B C D E F G H I J K L M N O P Q R S T U V W X Y Z #

  for    

On TABSPACE
Info About This Tab
Artist: 36 Crazyfists
Tab Type: Bass
Difficulty: intermediate
Rate This Tab!
36 Crazyfists - Kenai

Guitar intro: for 8 seconds
Intro: x2
F|--------------------------|--------------------------|
C|--------------------------|--------------------------|
G|--------------------------|--------------------------|
C|-0h1-0h1-0h1-0h1-313131.--|-0h1-0h1-0h1-0h1-4.4.4.4.-|

Bassfill:
F|-----------------|
C|-----------------|
G|-----------------|
C|-0h1-0h1-0h1-0h1-|

Verse:
F|-----------------|-----------------|-----------------|--------------|
C|-----------------|-----------------|-----------------|--------------|
G|-----------------|-----------------|-----------------|--------------|
C|-0h1-0h1-0h1-0h3-|-0h1-0h1-0h1-3h5-|-0h1-0h1-0h1-0h3-|-0h1-0h1-4.4.-|

F|-----------------|-----------------|-----------------|-----------------|
C|-----------------|-----------------|-----------------|-----------------|
G|-----------------|-----------------|-----------------|-----------------|
C|-0h1-0h1-0h1-0h3-|-0h1-0h1-0h1-3h5-|-0h1-0h1-0h1-0h3-|-0h1-0h1-4.4.4.4-|

Intro: x1
Intro: with different end
F|--------------------------|--------------------------|
C|--------------------------|--------------------------|
G|--------------------------|--------------------------|
C|-0h1-0h1-0h1-0h1-313131.--|-0h1-0h1-0h1-0h1-3-3-3-3.-|

Chorus:
F|------------------|------------------|------------------|----------------------|
C|------------------|------------------|------------------|----------------------|
G|------------------|------------------|------------------|----------------------|
C|-4-4444444-444444-|-2-2222222-222222-|-6-6666666-666666-6h7-77777h8-884.4.4.4.-|

Bassfill:
Verse:
Intro + Intro with different end
Chorus:
F|------------------|------------------|------------------|------------------|
C|------------------|------------------|------------------|------------------|
G|------------------|------------------|------------------|------------------|
C|-4-4444444-444444-|-2-2222222-222222-|-6-6666666-666666-6h7-77777h8-888888-|

F|------------------|------------------|------------------|------------------|
C|------------------|------------------|------------------|------------------|
G|------------------|------------------|------------------|------------------|
C|-4-4444444-444444-|-2-2222222-222222-|-6-6666666-666666-6h7-77777h8-88\----|

Bridge:
F|-6-------6--------|-6----------------|-6-------6--------|-6-------4--------|
C|-4-------4--------|-4----------------|-4-------4--------|-4-------2--------|
G|------------------|------------------|------------------|------------------|
C|------------------|---------4.4.4.---|------------------|------------------|

F|------------------|------------------|
C|------------------|------------------|
G|-8\------8\-------|-8\---------------| x2
C|-----3333----3333-|-----333344-44-44-|

F|------------------|
C|------------------|
G|-1/13/-slow-slide-|
C|------------------|

Chorus fall in:
F|------------------|------------------|------------------|------------------|
C|------------------|------------------|------------------|------------------|
G|------------------|------------------|------------------|------------------|
C|------------------|------------------|-4-4-4-4-4-4-4-4--6h7-77777h8-884.4.-|

F|------------------|------------------|------------------|------------------|
C|------------------|------------------|------------------|------------------|
G|------------------|------------------|------------------|------------------|
C|-4-4444444-444444-|-2-2222222-222222-|-6-6666666-666666-6h7-77777h8-888888-|

F|------------------|------------------|------------------|------------------------|
C|------------------|------------------|------------------|------------------------|
G|------------------|------------------|------------------|------------------------|
C|-4-4444444-444444-|-2-2222222-222222-|-6-6666666-666666-6h7-77777h8-884.4.4.4.4\-|

Rest:
End:
F|------------------|
C|------------------|
G|------------------| x4
C|-4//-----16\\-----|

F|------------------|------------------|    |---|
C|------------------|------------------|    |---|
G|------------------|------------------| x2 |-4-|
C|-4.4.4.4.4.--1111-|-4.4.4.4.4.-1-1111|    |---|




Share "Kenai" by 36 Crazyfists


TOP 10 TABS

FRESH NEW TABS

ALL ARTISTS
artist wiki

mp3bear.com
TabSpace.com / contact us / privacy policy / tabspace toolbar
Copyright 2004 - 2016 TabSpace.com - All Rights Reserved.
song: kenai bass tabs by 36 crazyfists

0.002