:: Guitar & Bass Tabs Make Home Page
A B C D E F G H I J K L M N O P Q R S T U V W X Y Z #

  for    

On TABSPACE
Info About This Tab
Artist: Misc Television
Tab Type: Bass
Rate This Tab!
Misc Television
Kenan & Kel Theme (Bass)
Tuning: Standard
Transcribed by Soch Hean

Intro:
|---------------------------------|
|------------------------7----8---|
|-3--5--6\------------------------|
|--------------3-3-3-5-5----6-----| (x4)
This is pretty much the bassline... its has a cool groove to it. Enjoy.

Verse:
|----------------------------------|
|-------------------------7----8---|
|-3--5--6\-------------------------|
|---------------3-3-3-5-5----6-----| (x7)

Outro:
|------------|
|------------|
|-3--5--6\---|
|------------|




Share "Kenan And Kel Theme" by Misc Television


TOP 10 TABS

FRESH NEW TABS

ALL ARTISTS
artist wiki

mp3bear.com
song lyrics / contact us / privacy policy / tabspace toolbar
Copyright 2004 - 2014 TabSpace.com - All Rights Reserved.
song: kenan and kel theme bass tabs by misc television

0.021