:: Guitar & Bass Tabs Make Home Page
A B C D E F G H I J K L M N O P Q R S T U V W X Y Z #

  for    

On TABSPACE
Info About This Tab
Artist: Misc Television
Tab Type: Guitar
Difficulty: novice
Rate This Tab!
Awsome song tab
Reg. Tuning

Main Riff: Reg. Tuning
E|---------------------------------|
B|---------------------------------|
G|---------------------------------|
D|-----------------------5---------|
A|------7-7----5--7-------7--------|
E|---------------------------------|
Play once then play again and add:
E|---------------------------------|
B|-----5-----7b9--7---5------------|
G|-----5---- 7b9--7---5------------|
D|---------------------------------|
A|---------------------------------|
E|---------------------------------|
Don't forget to play with the
cuts

Later add this before u start
Playin da main riff again
E|----------------------------------|
B|----------------------------------|
G|----------------------------------|
D|----5-------7---------------------|
A|----5-------7---------------------|
E|----3-------5---------------------|
Then main riff then go into
Yeah part with this^^^

The yeah part
E|---------------------------------|
B|-----------------3---------------|
G|---5----------- 2-----2----------|
D|---5-----5-----0-----2-----------|
A|---3-----5------------0----------|
E|----------3----------------------|

u can play it in a half step down wich sounds good too
they r some parts I didn't put in but it's pretty much the whole thing
frenzfave was bein a dick by not lettin me put up on his channel
I think this is pretty close sorry if it's not I'm not perfect oh yea and the yea part 
other parts are played in chords it screwed up there sorry fuckin love this song needs to 
published or I'm gonna steal it
                                        -tripp3469


Share "Kia Commercial Theme" by Misc Television


TOP 10 TABS

FRESH NEW TABS

ALL ARTISTS
artist wiki

mp3bear.com
song lyrics / contact us / privacy policy / tabspace toolbar
Copyright 2004 - 2014 TabSpace.com - All Rights Reserved.
song: kia commercial theme guitar tabs by misc television

0.015