:: Guitar & Bass Tabs Make Home Page
A B C D E F G H I J K L M N O P Q R S T U V W X Y Z #

  for    

On TABSPACE
Info About This Tab
Artist: 30 Seconds To Mars
Tab Type: Bass
Difficulty: intermediate
Tuning: Drop D
Rate This Tab!
30 SECONDS TO MARS - THE KILL
TABBED BY: THE ONE AND ONLY, SCHITZOJOE

TUNING: DROP D (dADG)


FIRST VERSE

G|-------------------------------------------------------------------------|
D|-------------------------------------------------------------------------|
A|---------------------------------------------2-2-2-2-2-2-2--------------- 
d|-5-5-5-5-5-5-5-0-0-0-0-0-0-0-2-2-2-2-2-2-2-2-----------------------------|
REPEAT 2X

CHORUS

G|-------------------------------------------------------------------------|
D|-------------------------------------------------------------------------|
A|-3-3-3-3-3-3-3-5-5-5-5-5-5-5-7-7-7-7-7-7-7-2-2-2-2-2-2-2-----------------|
d|-------------------------------------------------------------------------|

SECOND VERSE

G|-12p9-----------12p9-----------12p9------------12p9----------------------|
D|------10p9-10p9------10p9-10p9------10p9-10p9-------10p9-10p9------------|
A|-------------------------------------------------------------------------|
d|-------------------------------------------------------------------------|

G|--------12-12------------12-12---------12-12---------12-12---------------|
D|-9h10p9----------9h10p9---------9h10p9--------9h10p9---------------------|
A|-------------------------------------------------------------------------|
d|-------------------------------------------------------------------------|

G|-12p9-----------12p9-----------12p9------------12p9----------------------|
D|------10p9-10p9------10p9-10p9------10p9-10p9-------10p9-10p9------------|
A|-------------------------------------------------------------------------|
d|-------------------------------------------------------------------------|

G|--------12-12------------12-12-------------------------------------------|
D|-9h10p9-------9--9h10p9---------9h10p9-9-9---9h10p9-9-9------------------|
A|-------------------------------------------------------------------------|
d|-------------------------------------------------------------------------|


2ND CHORUS

G|-------------------------------------------------------------------------|
D|-------------------------------------------------------------------------|
A|-3-3-3-3-3-3-3-5-5-5-5-5-5-5-7-7-7-7-7-7-7-2-2-2-2-2-2-2-----------------|
d|-------------------------------------------------------------------------|

BRIDGE

G|-------------------------------------------------------------------------|
D|-------------------------------------------------------------------------|
A|-0-0-0-0-0-0-2-2-2-2-2-2-7-7-7-7-7-7-7-7-7-7-7-7-7-7-7-7-7-7-7-7-7-7-7-7-|
d|-------------------------------------------------------------------------|

G|-------------------------------------------------------------------------|
D|-------------------------------------------------------------------------|
A|-3-3-3-3-3-3-3-3-3-3-3-3-5-5-5-5-5-5-5-5-5-5-5-5-7-7-7-7-7-7-7-7-7-7-7-7-|
d|-------------------------------------------------------------------------|

G|-------------------------------------------------------------------------|
D|-------------------------------------------------------------------------|
A|-3-3-3-3-3-3-3-3-3-3-3-3-5-5-5-5-5-5-5-5-5-5-5-5-7-7-7-7-7-7-7-7-7-7-7-7-|
d|-------------------------------------------------------------------------|

G|-------------------------------------------------------------------------|
D|-------------------------------------------------------------------------|
A|-3-3-3-3-3-3-3-3-3-3-3-3-5-5-5-5-5-5-5-5-5-5-5-5-7-7-7-7-7-7-7-7-7-7-7-7-|
d|-------------------------------------------------------------------------|

BREAK

G|-------------------------------------------------------------------------|
D|-------------------------------------------------------------------------|
d|-7-7-7-7-7-7-7-7-7-7-7-7-7-7-7-7-7-7-7-7-7-7-7-7-7-7-7-7-7-7-7-7-7-7-7-7-|
d|-------------------------------------------------------------------------|


FINAL CHORUS

G|-------------------------------------------------------------------------|
D|-------------------------------------------------------------------------|
A|-3-3-3-3-3-3-3-5-5-5-5-5-5-5-7-7-7-7-7-7-7-2-2-2-2-2-2-2-----------------|
d|-------------------------------------------------------------------------|

G|-------------------------------------------------------------------------|
D|-------------------------------------------------------------------------|
A|-3-3-3-3-3-3-3-5-5-5-5-5-5-5-7-7-7-7-7-7-7-2-2-2-2-2-2-2-----------------|
d|-------------------------------------------------------------------------|

G|-------------------------------------------------------------------------|
D|-------------------------------------------------------------------------|
A|-3-3-3-3-3-3-3-5-5-5-5-5-5-5-7-7-7-7-7-7-7-2-2-2-2-2-2-2-----------------|
d|-------------------------------------------------------------------------|


OUTRO

G|-12p9-----------12p9-----------12p9------------12p9----------------------|
D|------10p9-10p9------10p9-10p9------10p9-10p9-------10p9-10p9------------|
A|-------------------------------------------------------------------------|
d|-------------------------------------------------------------------------|

G|--------12-12------------12-12---------12-12---------12-12---------------|
D|-9h10p9----------9h10p9---------9h10p9--------9h10p9---------------------|
A|-------------------------------------------------------------------------|
d|-------------------------------------------------------------------------|

G|-12p9-----------12p9-----------12p9------------12p9----------------------|
D|------10p9-10p9------10p9-10p9------10p9-10p9-------10p9-10p9------------|
A|-------------------------------------------------------------------------|
d|-------------------------------------------------------------------------|

G|--------12-12------------12-12-------------------------------------------|
D|-9h10p9-------9--9h10p9---------9h10p9-9-9---9h10p9-9-9------------------|
A|-------------------------------------------------------------------------|
d|-------------------------------------------------------------------------|


Share "Kill" by 30 Seconds To Mars


TOP 10 TABS

FRESH NEW TABS

ALL ARTISTS
artist wiki

mp3bear.com
song lyrics / contact us / privacy policy / tabspace toolbar
Copyright 2004 - 2014 TabSpace.com - All Rights Reserved.
song: kill bass tabs by 30 seconds to mars

0.014