:: Guitar & Bass Tabs Make Home Page
A B C D E F G H I J K L M N O P Q R S T U V W X Y Z #

  for    

On TABSPACE
Info About This Tab
Artist: Misc Television
Tab Type: Guitar
Rate This Tab!
King of the Hill Theme
Transcribed by: playinbass1432
Email: playinbass1432@hotmail.com

Standard Tuning

Intro (Acoustic):

       A          E
E|----------------0----|
B|-----2--2-------0----|
G|-----2--2-------1----|
D|-----2--2-------2----|
A|-0---0--0-------2----|
E|------------0---0----|

Riff:

Guitar 1 

E|---------------------|--------------------------|
B|---------------------|--------------------------|
G|---------------------|--------------------6--4--|
D|---------------------|--------------------6--4--|
A|-2---2-2-2-2-2-2---2-|-2-2-2-2-7--7-7-7---4--2--|
E|-0---0-0-0-0-0-0-4-0-|-0-0-0-0-5--5-5-5---------| 
 |
Guitar 2 
 |
E|---------------------|--------------------------|
B|---------------------|--------------------------|
G|---------------------|--------------------6--4~~|
D|---------------------|---------2--2-2-2---------|
A|-2---2-2-2-2-2-2-6-2-|-2-2-2-2-0--0-0-0---------|
E|-0---0-0-0-0-0-0-4-0-|-0-0-0-0------------------|


E|---------------------|---------------------------------|
B|---------------------|---------------------------------|
G|---------------------|---------------------------------|
D|---------------------|---------2---2-2-----------------|
A|-2---2-2-2-2-2-2---2-|-2-2-2-2-0---0-0--6---6-6-4--6-4-|
E|-0---0-0-0-0-0-0-4-0-|-0-0-0-0----------4---4-4-2--4-2-|
 |
E|---------------------|---------------------------------|
B|---------------------|---------------------------------|
G|---------------------|---------------------------------|
D|---------------------|---------2---2-2-----------------|
A|-2---2-2-2-2-2-2---2-|-2-2-2-2-0---0-0--6---6-6-4--6-4-|
E|-0---0-0-0-0-0-0-4-0-|-0-0-0-0----------4---4-4-2--4-2-|


E|---------------------|--------------------------|
B|---------------------|--------------------------|
G|---------------------|--------------------6--4--|
D|---------------------|--------------------6--4--|
A|-2---2-2-2-2-2-2---2-|-2-2-2-2-7--7-7-7---4--2--|
E|-0---0-0-0-0-0-0-4-0-|-0-0-0-0-5--5-5-5---------| 
 |
E|---------------------|--------------------------|
B|---------------------|--------------------------|
G|---------------------|--------------------------|
D|---------------------|---------2--2-2-2---6--4--|
A|-2---2-2-2-2-2-2-6-2-|-2-2-2-2-0--0-0-0---4--2--|
E|-0---0-0-0-0-0-0-4-0-|-0-0-0-0------------------|


E|---------------------------------------------------------|
B|---------------------------------------------------------|
G|---------------------------------------------------------|
D|-9---9-9-6---6-6-4---4-4-2---2-2---------------------9-9-|
A|-7---7-7-4---4-4-2---2-2-0---0-0-6---6-----------2---7-7-|
E|---------------------------------4---4---4h5p4-2-0-------|
 |
E|---------------------------------------------------------|
B|---------------------------------------------------------|
G|-9---9-9-6---6-6-4---4-4-2---2-2-1---1---------------9-9-|
D|-----------------------------------------6h7p6-4-----9-9-|
A|-------------------------------------------------7---7-7-|
E|---------------------------------------------------------|

Solo: (Guitar 3): 


E|------------------------------------------|
B|-9-------------------------9--------------|
G|---11b13-11-9----9-11b13-----11b13-11-9---|
D|--------------11--------------------------|
A|------------------------------------------|
E|------------------------------------------|

           
E|----------------------------------------------------------------------|
B|-----9-12b14-------12pb14r12--9h10p9----9-----------------------------|
G|-/11---------------------------------11---11b13-11-9----9~~----9------|
D|-----------------------------------------------------11-----11---11-x-|
A|----------------------------------------------------------------------|
E|----------------------------------------------------------------------|


E|-------------------------------------|-----------------------------|
B|-x-14-14-14-14-14-14-14-14-14-x--x-x-|-17---17-17-17-17-17-14-14-x-|
G|-x-14-14-14-14-14-14-14-13-13-x--x-x-|-16---16-16-16-16-16-14-13-x-|
D|-------------------------------------|-----------------------------|
A|-------------------------------------|-----------------------------|
E|-------------------------------------|-----------------------------|


E|---12-11-9----------------------------------------|
B|-9---------12-10-9--------------------------------|
G|-------------------11-11b13--11-9----9-11-11b13---|
D|----------------------------------11--------------|
A|--------------------------------------------------|
E|--------------------------------------------------|


E|----------------------------------|
B|----12---------14---------17------|
G|-14b16------16b18------19b21------|
D|----------------------------------|
A|----------------------------------|
E|----------------------------------|


Under Solo: 
  
   Db              Ab                A               D       A
E|---------------------------------|---------------------------------|
B|---------------------------------|---------------------------------| Both 
G|-6---6---6---6-------------------|-----------------7---7-----------| Gtrs
D|-6---6---6---6---6---6---6---6---|-7---7---7---7---7---7---7---7---| 1 + 2
A|-4---4---4---4---6---6---6---6---|-7---7---7---7---5---5---7---7---|
E|-----------------4---4---4---4---|-5---5---5---5-----------5---5---|

   Db              Ab                A               D       A
E|---------------------------------|---------------------------------|
B|---------------------------------|---------------------------------| Both 
G|-6---6---6---6-------------------|-----------------7---7---7---7---| Gtrs
D|-6---6---6---6---6---6---6---6---|-7---7---7---7---7---7---7---7---| 1 + 2 
A|-4---4---4---4---6---6---6---6---|-7---7---7---7---5---5---5---5---|
E|-----------------4---4---4---4---|-5---5---5---5-------------------|


E|---------------------|--------------------------|
B|---------------------|--------------------------|
G|---------------------|--------------------6--4--|
D|---------------------|--------------------6--4--|
A|-2---2-2-2-2-2-2---2-|-2-2-2-2-7--7-7-7---4--2--|
E|-0---0-0-0-0-0-0-4-0-|-0-0-0-0-5--5-5-5---------| 
 |
E|---------------------|--------------------------|
B|---------------------|--------------------------|
G|---------------------|--------------------------|
D|---------------------|---------2--2-2-2---6--4--|
A|-2---2-2-2-2-2-2-6-2-|-2-2-2-2-0--0-0-0---4--2--|
E|-0---0-0-0-0-0-0-4-0-|-0-0-0-0------------------|


E|---------------------------------------------------------|
B|---------------------------------------------------------|
G|---------------------------------------------------------|
D|-9---9-9-6---6-6-4---4-4-2---2-2---------------------9-9-|
A|-7---7-7-4---4-4-2---2-2-0---0-0-6---6-----------2---7-7-|
E|---------------------------------4---4---4h5p4-2-0-------|
 |
E|---------------------------------------------------------|
B|---------------------------------------------------------|
G|-9---9-9-6---6-6-4---4-4-2---2-2-1---1---------------9-9-|
D|-----------------------------------------6h7p6-4-----9-9-|
A|-------------------------------------------------7---7-7-|
E|---------------------------------------------------------|



Share "King Of The Hill Theme" by Misc Television


TOP 10 TABS

FRESH NEW TABS

ALL ARTISTS
artist wiki

mp3bear.com
song lyrics / contact us / privacy policy / tabspace toolbar
Copyright 2004 - 2014 TabSpace.com - All Rights Reserved.
song: king of the hill theme guitar tabs by misc television

0.028