:: Guitar & Bass Tabs Make Home Page
A B C D E F G H I J K L M N O P Q R S T U V W X Y Z #

  for    

On TABSPACE
Info About This Tab
Artist: 30 Seconds To Mars
Tab Type: Guitar
Rate This Tab!
Drop D

chorus (Rhythm)
e------------------------------------------------------------------------|
b------------------------------------------------------------------------|
g------------------------------------------------------------------------|
d-11111111-33333333-6666666666666666-11111111-33333333-66666666-88888888-|
a-11111111-33333333-6666666666666666-11111111-33333333-66666666-88888888-|
d-11111111-33333333-6666666666666666-11111111-33333333-66666666-88888888-|

Lead Guitar  part 1 (hard to hear first part for chorus)
e---------------|
b-8-9-8--8-9-11-|
g---------------|
d---------------|
a---------------|
d---------------|

part 2
e--------------|
b-888-999-1111-|
g--------------|
d--------------|
a--------------|
d--------------|

verse (sounds like it's all piano.  Kinda hard to transcribe to guitar)
e--------------------|
b-8-9--9-8--8-9--9-8-|
g--------------------|
d--------------------|
a--------------------|
d--------------------|

e-----------------------|
b-8~--6~--8~--6~--------|
g-8~--6~--8~--6~--------|
d-8~--6~--8~--6~--6-6-6-|
a-6~--4~--6~--4~--6-6-6-|
d-----------------6-6-6-|

pre-chorus
e-11----------|
b----11--8-9--|   play it faster
g-------------|   when gets
d-------------|   closer to chorus
a-------------|
d-------------|

Another Guitar plays the 11's louder at end of pre-chorus

Chorus

riff 1
          3x                 1x
e-------------------|-----------------|
b-9---8---11---8----|--9---8---6---8--|
g---8---8----8---8--|----8---8---8----|
d-------------------|-----------------|
a-------------------|-----------------|
d-------------------|-----------------|

verse 2
rhythm  (listen to when to hit these chords.  They're quiet compared to the lead)
e---------------------
b-8~--6~--8~--6~------
g-8~--6~--8~--6~------
d-8~--6~--8~--6~--6~--
a-6~--4~--6~--4~--6~--
d-----------------6~--

Lead
e-----------11~--9~---------|
b---9---9-8---------11~--9~-| repeat
g-8---8---------------------| several
d---------------------------| times
a---------------------------|
d---------------------------|

play riff 1

end verse with 
e-11-----11-----11-----11-----|
b----11-----11-----11-----11--|  
g-----------------------------|

Chorus

Bridge
Synth Part (hard to make it out but it sounds kinda close)
e------------------|
b-4~---9~--8~--8~--|
g-5~--10~--8~--7~--|
d-5~--10~--8~--8~--|
a-3~---8~--6~--5~--|
d------------------|

Small Piano Bit
e-4-3----|
b-----4~-|
g--------|
d--------|
a--------|
d--------|
riff 1

Chorus 2 (Rhythm)
e------------------------------------|
b------------------------------------|
g------------------------------------|
d-11111111-33333333-6666666666666666-|
a-11111111-33333333-6666666666666666-|
d-11111111-33333333-6666666666666666-|

e-------------------------------------|
b-------------------------------------|
g-------------------------------------|
d-11111111-33333333-66666666-88888888-|
a-11111111-33333333-66666666-88888888-|
d-11111111-33333333-66666666-88888888-|

Lead Guitar
                 3x            1x
e-------------------|-----------------|
b-9---8---11---8----|--9---8---6---8--|
g---8---8----8---8--|----8---8---8----|   2x
d-------------------|-----------------|
a-------------------|-----------------|
d-------------------|-----------------|

e--------------|
b-888-999-1111-|
g--------------|
d--------------|
a--------------|
d--------------|

Outro
Rhythm plays Chorus

Lead (Outro)    3x
e--------------------------------------------------------------------------|
b--------------------------------------------------------------------------|
g-8/10--10-10-10/12--12-12-12/13--13-13-13/15-15-15-15-15-15-15-15-15-15---|
d-x/-x---x--x--x/-x---x--x--x/-x---x--x--x/-x--x--x--x--x--x--x--x--x--x---|
a-6/-8---8--8--8/10--10-10-10/11--11-11-11/13-13-13-13-13-13-13-13-13-13---|
d--------------------------------------------------------------------------|

last time
e--------------------------------------------------------------------------|
b--------------------------------------------------------------------------|
g-8/10--10-10-10/12--12-12-12/13--13-13-13/20-20-20-20-20-20-20-20-20-20---|
d-x/-x---x--x--x/-x---x--x--x/-x---x--x--x/-x--x--x--x--x--x--x--x--x--x---|
a-6/-8---8--8--8/10--10-10-10/11--11-11-11/18-18-18-18-18-18-18-18-18-18---|
d--------------------------------------------------------------------------|




Share "Kings And Queens" by 30 Seconds To Mars


TOP 10 TABS

FRESH NEW TABS

ALL ARTISTS
artist wiki

mp3bear.com
song lyrics / contact us / privacy policy / tabspace toolbar
Copyright 2004 - 2014 TabSpace.com - All Rights Reserved.
song: kings and queens guitar tabs by 30 seconds to mars

0.132