:: Guitar & Bass Tabs Make Home Page
A B C D E F G H I J K L M N O P Q R S T U V W X Y Z #

  for    

On TABSPACE
Info About This Tab
Artist: Daphne Loves Derby
Tab Type: Guitar
Rate This Tab!
Hey This is the tab for Kirby.......very easy and fun song to play........figured this 
easily so here it is and enjoy

Standard Tuning

Intro/Verse
|--0---0--|x4
|--1---0--|
|--2---0--|
|--3---2--|
|--0---3--|
|--x---x--|

Pre-Chorus
|--0---0---0--|x2
|--1---3---1--|
|--0---2---2--|
|--2---0---3--|
|--0---0---0--|
|--x---x---x--|


Chorus
|--0---0--|x2
|--1---0--|
|--2---1--|
|--3---0--|
|--0---2--|
|------0--|

Intro/Verse

Pre-Chorus

Bridge
|--x---x---0---0---0---3--|
|--x---x---1---3---1---1--|
|--x---x---0---2---2---2--|
|--5---6---2---0---3---3--|
|--5---6---0---0---0---0--|
|--3---4---x---x---x---x--|

Breakdown(palm muted)
|--0---0--|
|--1---0--|
|--2---0--|
|--3---2--|
|--0---3--|
|--x---x--|

End of Breakdown
|--0--|
|--0--|
|--1--|
|--0--|
|--2--|
|--0--|

Intro/Verse

Pre-Chorus


Share "Kirby" by Daphne Loves Derby


TOP 10 TABS

FRESH NEW TABS

ALL ARTISTS
artist wiki

mp3bear.com
song lyrics / contact us / privacy policy / tabspace toolbar
Copyright 2004 - 2014 TabSpace.com - All Rights Reserved.
song: kirby guitar tabs by daphne loves derby

0.008