:: Guitar & Bass Tabs Make Home Page
A B C D E F G H I J K L M N O P Q R S T U V W X Y Z #

  for    

On TABSPACE
Info About This Tab
Artist: La Cuca
Tab Type: Guitar
Difficulty: intermediate
Rate This Tab!
Banda: La Cuca
Titulo: La Pucha Asesina

intro
e-------------------|
B-------------------|
G-------------------|
D--6--5--4--3-3-3-3-|
A--6--5--4--3-3-3-3-|
E-------------------|


e----------------|
B----------------|
G----------------|
D-6-6--9---6-----|
A-6-6--9---6-----|
E----------------|

verso
pues estaba yo pensando....

e------------------------------------|
B------------------------------------|
G------------------------------------|
D--11----11-11-11-11---11---11-11-11-|
A--11----11-11-11-11---11---11-11-11-|
E------------------------------------|

e----------------|
B----------------|
G----------------|
D-6-6--9---6-----|
A-6-6--9---6-----|
E----------------|

pues estaba yo pensando en caer...

e------------------------------------|
B------------------------------------|
G------------------------------------|
D--11----11-11-11-11---11---11-11-11-|
A--11----11-11-11-11---11---11-11-11-|
E------------------------------------|

e----------------|
B----------------|
G----------------|
D-6-6--9---6-----|
A-6-6--9---6-----|
E----------------|


coro
se que eres mi vida....

e--------------------------------------|
B--------------------------------------|
G--------------------------------------|
D-11--11----10--9---7--6---------------|    x4
A-11--11----10--9---7--6---------------|
E--------------------------------------|

la pucha asesina....

e-----------------------------------------------|
B-----------------------------------------------|
G-----------------------------------------------|
D--6---5---4--3----6---5---4--4--4--7--4--3-----|
A--6---5---4--3----6---5---4--4--4--7--4--3-----|
E-----------------------------------------------|

e----------------|
B----------------|
G----------------|
D-6-6--9---6-----|
A-6-6--9---6-----|
E----------------|


verso
pues estaba yo pensando....

e------------------------------------|
B------------------------------------|
G------------------------------------|
D--11----11-11-11-11---11---11-11-11-|
A--11----11-11-11-11---11---11-11-11-|
E------------------------------------|

e----------------|
B----------------|
G----------------|
D-6-6--9---6-----|
A-6-6--9---6-----|
E----------------|


pues estaba yo pensando que te ves....

e------------------------------------|
B------------------------------------|
G------------------------------------|
D--11----11-11-11-11---11---11-11-11-|
A--11----11-11-11-11---11---11-11-11-|
E------------------------------------|

e----------------|
B----------------|
G----------------|
D-6-6--9---6-----|
A-6-6--9---6-----|
E----------------|

coro
se que eres mi vida....

e--------------------------------------|
B--------------------------------------|
G--------------------------------------|
D-11--11----10--9---7--6---------------|    x4
A-11--11----10--9---7--6---------------|
E--------------------------------------|

la pucha asesina....

e-----------------------------------------------|
B-----------------------------------------------|
G-----------------------------------------------|
D--6---5---4--3----6---5---4--4--4--7--4--3-----|
A--6---5---4--3----6---5---4--4--4--7--4--3-----|
E-----------------------------------------------|

solo


e----------------|
B----------------|
G----------------|
D-6-6--9---6-----|
A-6-6--9---6-----|
E----------------|

pues estaba yo pensando....

e------------------------------------|
B------------------------------------|
G------------------------------------|
D--11----11-11-11-11---11---11-11-11-|
A--11----11-11-11-11---11---11-11-11-|
E------------------------------------|

e----------------|
B----------------|
G----------------|
D-6-6--9---6-----|
A-6-6--9---6-----|
E----------------|


pues estaba yo pensando que te ves....

e------------------------------------|
B------------------------------------|
G------------------------------------|
D--11----11-11-11-11---11---11-11-11-|
A--11----11-11-11-11---11---11-11-11-|
E------------------------------------|

e----------------|
B----------------|
G----------------|
D-6-6--9---6-----|
A-6-6--9---6-----|
E----------------|

coro
se que eres mi vida....

e--------------------------------------|
B--------------------------------------|
G--------------------------------------|
D-11--11----10--9---7--6---------------|    x4
A-11--11----10--9---7--6---------------|
E--------------------------------------|

la pucha asesina....

e-----------------------------------------------|
B-----------------------------------------------|
G-----------------------------------------------|
D--6---5---4--3----6---5---4--4--4--7--4--3-----|
A--6---5---4--3----6---5---4--4--4--7--4--3-----|
E-----------------------------------------------|

asesina
e----------------|
B----------------|
G----------------|
D-6-6--9---6-----|
A-6-6--9---6-----|
E----------------|


Share "La Pucha Asesina" by La Cuca


TOP 10 TABS

FRESH NEW TABS

ALL ARTISTS
artist wiki

mp3bear.com
song lyrics / contact us / privacy policy / tabspace toolbar
Copyright 2004 - 2014 TabSpace.com - All Rights Reserved.
song: la pucha asesina guitar tabs by la cuca

0.017