:: Guitar & Bass Tabs Make Home Page
A B C D E F G H I J K L M N O P Q R S T U V W X Y Z #

  for    

On TABSPACE
Info About This Tab
Artist: Evanescence
Tab Type: Guitar
Difficulty: intermediate
Rate This Tab!
-------------------------------------------------------------------------------
			     Lacrymosa - Evanescence
-------------------------------------------------------------------------------

Tuning: Tune down to C# G# C# F# A# D# 
Tabbed by: Ryan Dugan
o0_ryan_0o@hotmail.com

Chorus: 
                 x2
D#|---------------|-------------------------|
A#|---------------|-------------------------|
F#|---------------|-------------------------|                  
C#|--3---6-6-5-5--|--3---5-5-6-6--10-10-10--|
G#|--3---6-6-5-5--|--3---5-5-6-6--10-10-10--|  Repeat
C#|--3---6-6-5—5--|--3---5-5-6-6--10-10-10--|

(“Hold you back now…”)

D#|-----------------|
A#|-----------------|
F#|--6---5---10--5--|
C#|--x---x---x---x--|
G#|--4---3---8---3--|
C#|-----------------|

Bridge: Clean

(Delay and Reverb)

D#|---------------------------------|
A#|---------------------------------|
F#|---------------------------------|    
C#|------------------------1-----1--|
G#|-----4-3------4-3----------------|
C#|--3--------3---------1-----1-----|

Distorted: 
D#|------------------------------------------------------------|
A#|------------------------------------------------------------|
F#|---------6-5------------6-5------6---6-6--13—--6---6-6—-13--|
C#|--3------x-x---3-3------x-x------x---x-x--x----x---x-x—-x---|
G#|--3------4-3---3-3------4-3------4---4-4--11---4---4-4—-11--|
C#|--3---0--------3-3---0--------0-----------------------------|
         .        .     .        .      . .           . .
                                                    
D#|-------------------------------------------------------------------|
A#|-------------------------------------------------------------------|                           
F#|---------6-5------------6-5------6---6-6--13—--6---6-6—6-6---------|
C#|--3------x-x---3-3------x-x------x---x-x--x----x---x-x—x-x—(builds)| 
G#|--3------4-3---3-3------4-3------4---4-4--11---4---4-4—4-4---------|
C#|--3---0--------3-3---0--------0------------------------------------|
         .        .     .        .      . .           . . . .
                                                    

Guitar Solo: ("b^" = bend up and then back to note)

                     +   +      +
D#|-------------------------------------------------------------------|
A#|-------------------------------------------------------------------|
F#|--13-12p10-10v----13--12p10--9b^---13-12p10-10v---13-12p10-10//15--|
C#|-------------------------------------------------------------------|
G#|-------------------------------------------------------------------|
C#|-------------------------------------------------------------------|

D#|--------------------------------------20-------------21--|
A#|--16p13—16//18--18--18-18-18-18-18-18----18-18-18-18-----|
F#|---------------------------------------------------------|
C#|---------------------------------------------------------|
G#|---------------------------------------------------------|
C#|---------------------------------------------------------|

D#|--------------//23-23-23-23-23//24\\-----------------------|
A#|--18-18-18-18--------------------------//18---18-18-18-18--|
F#|-----------------------------------------------------------|
C#|-----------------------------------------------------------|
G#|-----------------------------------------------------------|
C#|-----------------------------------------------------------|


D#|---------------------------------------------------|
A#|--18---18-18-18-18---18---18-18-18-18--17-17-17\\--|
F#|---------------------------------------------------|
C#|---------------------------------------------------|
G#|---------------------------------------------------|
C#|---------------------------------------------------|

Then Chorus: 

                 x2
D#|---------------|-------------------------|
A#|---------------|-------------------------|
F#|---------------|-------------------------|  
C#|--3---6-6-5-5--|--3---5-5-6-6--10-10-10--|
G#|--3---6-6-5-5--|--3---5-5-6-6--10-10-10--|  Repeat
C#|--3---6-6-5-5--|--3---5-5-6-6--10-10-10--|
                                            
(“Hold you back now…”)

D#|------------------|
A#|------------------|
F#|--6---5---10--12--|
C#|--x---x---x---x---|
G#|--4---3---8---10--|
C#|------------------|


D#|----------------|--------------------------------------------------|
A#|----------------|--------------------------------------------------|
F#|----------------|--------------------------------------------------|           
C#|-5p3-3-3-3-3-3--|-6p5p3-6p5p3—6p5p3--3-3-3-3-3--6p5p3-6p5p3—6p5p3--|
G#|-5p3-3-3-3-3-3--|-6p5p3-6p5p3—6p5p3--3-3-3-3-3--6p5p3-6p5p3—6p5p3--|
C#|-5p3-3-3-3-3-3--|-6p5p3-6p5p3—6p5p3--3-3-3-3-3--6p5p3-6p5p3—6p5p3--|
    . . . . . . .    . . . . . . . . .  . . . . .  . . . . . . . . .
                              
                                             x3
D#|----------------------|--------------------|--------|
A#|----------------------|--------------------|--------|
F#|----------------------|--------------------|--------|                                              
C#|--//10---10-10-10-10--|--10---10-10-10-10--|--//3---|
G#|--//10---10-10-10-10--|--10---10-10-10-10--|--//3---|
C#|--//10---10-10-10-10--|--10---10-10-10-10--|--//3---|

Tabbed By Ryan Dugan 

Give credit where credit is do ;-). Enjoy! 

| /  slide up
| \  slide down
| h  hammer-on
| p  pull-off
| ~  vibrato
| +  harmonic
| x  Mute note
===============================================================================



Share "Lacrymosa" by Evanescence


TOP 10 TABS

FRESH NEW TABS

ALL ARTISTS
artist wiki

mp3bear.com
song lyrics / contact us / privacy policy / tabspace toolbar
Copyright © 2004 - 2014 TabSpace.com - All Rights Reserved.
song: lacrymosa guitar tabs by evanescence

0.015