:: Guitar & Bass Tabs Make Home Page
A B C D E F G H I J K L M N O P Q R S T U V W X Y Z #

  for    

On TABSPACE
Info About This Tab
Artist: Tokio Hotel
Tab Type: Guitar
Difficulty: intermediate
Rate This Tab!
Intro:
e---------------------------------------------------|
b---------------------------------------------------|
G----9------9------9------9-------------------------|      2x
D----9------9------9------9-------------------------|
A----7------7------7------7-------------------------|
E-00----00-----00-----00--------7887887878878878----|

Ver 1
e-------------------------------------|
b-------------------------------------|
G--9-------9-7-5--555555555555555-----|
D--9-------9-7-5--555555555555555-----|
A--7-------7-5-3--333333333333333-----|
E-------------------------------------|

e--------------------------------------------------------------------|
b--------------------------------------------------------------------|
G--9-999999999999------9-7-5--5555555--------------------------------|
D--9-999999999999------9-7-5--5555555------------7--9--6--7--7--9----|
A--7-777777777777------7-5-3--3333333--78878878--7--9--6--7--7--9----|
E------------------------------------------------5--7--4--5--5--7----|

Chorus:
e--------------------------------------------|
b--------------------------------------------|
G-----------4-44-4444--7-7-777---------------|
D--2-2-222--4-44-4444--7-7-777--7-7-777------|
A--2-2-222--2-22-2222--5-5-555--7-7-777------|
E--0-0-000----------------------5-5-555------|

e------------------------------------|
b------------------------------------|
G-----------4-44-4444--7-7-777--9----|
D--2-2-222--4-44-4444--7-7-777--9----|
A--2-2-222--2-22-2222--5-5-555--7----|
E--0-0-000---------------------------|

e-------------------------------------------------------|
b-------------------------------------------------------|
G--11-11--11-12--11---9-99-9-11-9-7-7-7797-77-77-7777---|
D--11-11--11-12--11---9-99-9-11-9-7-7-7797-77-77-7777---|
A--9--9---9--10--9----7-77-7-9--7-5-5-5575-55-55-5555---|
E-------------------------------------------------------|

e---------------------------------------------|
b---------------------------------------------|
G--11-11--11-12--11-9-------------------------|
D--11-11--11-12--11-9-------------------------|
A--9--9---9--10--9--7-------------------------|
E----------------------7887887878878878-------|

intro ver 2
e---------------------------------------------------|
b---------------------------------------------------|
G----9------9------9------9-------------------------|      2x
D----9------9------9------9-------------------------|
A----7------7------7------7-------------------------|
E-00----00-----00-----00--------7887887878878878----|

ver 2
e-------------------------------------|
b-------------------------------------|
G--9-------9-7-5--555555555555555-----|
D--9-------9-7-5--555555555555555-----|
A--7-------7-5-3--333333333333333-----|
E-------------------------------------|

e--------------------------------------------------------|
b--------------------------------------------------------|
G--9-------9-7-5--5555555--------------------------------|
D--9-------9-7-5--5555555------------7--9--6--7--7--9----|
A--7-------7-5-3--3333333--78878878--7--9--6--7--7--9----|
E------------------------------------5--7--4--5--5--7----|


Chorus


e---------------------------------------------------|
b---------------------------------------------------|
G----9------9------9------9-------------------------|      2x
D----9------9------9------9-------------------------|
A----7------7------7------7-------------------------|
E-00----00-----00-----00--------7887887878878878----|


e---------------------4-4-5-5------------|
b--9-9-10-10-2-2-4-4----------2-2-457----|
G----------------------------------------|
D----------------------------------------|
A----------------------------------------|
E----------------------------------------|

e--4-4-5-5-----------4-4-5-5----------------------------------|
b----------2-2-4-4--------------------------------------------|
G-------------------------------------------------------------|
D-------------------------------------------------------------|
A-------------------------------------------------------------|
E------------------------------78878878-9-10-10-9-10-10-9-10--|

e--------------------------------------------|
b--------------------------------------------|
G--11-11-99-99-9-66-99-9----7-6--------------|
D--11-11-99-77-9-66-77-9-7--7-6-9797---------|
A--9--9--77-55-7-44-55-7-7--5-4-9797---------|
E------------------------5------7575---------|

e--------------------------------------|
b--------------------------------------|
G--11-11-99-99-9-66-99-9----12---------|
D--11-11-99-77-9-66-77-9-7--12---------|
A--9--9--77-55-7-44-55-7-7--10---------|
E------------------------5-------------|

Chorus

e---------------------------------------------------|
b---------------------------------------------------|
G----9------9------9------9-------------------------|
D----9------9------9------9-------------------------|
A----7------7------7------7-------------------------|
E-00----00-----00-----00--------7887887878878878----|

e--------------------------------------------|
b--------------------------------------------|
G--14-9-6-----------------------99-99-99-----|
D--14-9-6-7---------------------99-99-99-----|
A--12-7-4-7---------------------77-77-77-----|
E---------5---7887887878878878---------------|


Share "Lass Uns Hier Raus" by Tokio Hotel


TOP 10 TABS

FRESH NEW TABS

ALL ARTISTS
artist wiki

mp3bear.com
song lyrics / contact us / privacy policy / tabspace toolbar
Copyright 2004 - 2014 TabSpace.com - All Rights Reserved.
song: lass uns hier raus guitar tabs by tokio hotel

0.009