:: Guitar & Bass Tabs Make Home Page
A B C D E F G H I J K L M N O P Q R S T U V W X Y Z #

  for    

On TABSPACE
Info About This Tab
Artist: Under The Influence Of Giants
Tab Type: Guitar
Rate This Tab!
-------------------------------------------------------------------------------
			     Lay Me Down - Under The Influence Of Giants
-------------------------------------------------------------------------------
Tabbed by:Spike5260
Email:spike5260@yahoo.com

Tuning:Standard

e|----------------------------------------------------1--------1-------------|
B|-----6-----------6-----------6----------------------1--------1-------------|
G|-----6-----------6-----------6----------------------1--------1-------------|
D|-----6---6---6---6---6---6---6---6-------------3----3--3-----3-------------|
A|-------------------------------------------3--------3----3---3-------------|
E|---------------------------------------1------------1--------1--4----------|

e|----------------------------------------------2---------------4------------|
B|-------------------2-------2------------------2---------------4------------|
G|-------------3-----3-------3------------------3---------------5------------|
D|---------3---------3--3----3------------------4---------------6------------|
A|-----1-------------1----4--1--1----------4----4----------6----6------------|
E|-------------------------------------2--------2--2-----4------4--4---------|

e|-----------------------------------------------------1------1--------------|
B|-----6-----------6-----------6-----------------------1------1--------------|
G|-----6-----------6-----------6-----------------------1------1--------------|
D|-----6-----------6-----------6-------------------3---3--3---3--------------|
A|---------4---4-------4---4--------4----------3-------3---4--3--4-----------|
E|-----------------------------------------1-----------1------1--------------|

e|---------------------------------------------2----------------4------------|
B|-----2-----------2-----------2---------------2----------------4------------|
G|-----3-----------3-----------3---------------3----------------5------------|
D|-----3----3------3----3------3---------------4----------------6------------|
A|-------------1-----------1-------1-------4---4-----------6----6------------|
E|-------------------------------------2-------2--2-----4-------4--4---------|

e|-----------------------------------------------------1------1--------------|
B|-----6-----------6-----------6-----------------------1------1--------------|
G|-----6-----------6-----------6-----------------------1------1--------------|
D|-----6-----------6-----------6-------------------3---3--3---3--------------|
A|---------4---4-------4---4--------4----------3-------3---4--3--4-----------|
E|-----------------------------------------1-----------1------1--------------|

e|---------------------------------------------2----------------4------------|
B|-----2-----------2-----------2---------------2----------------4------------|
G|-----3-----------3-----------3---------------3----------------5------------|
D|-----3----3------3----3------3---------------4----------------6------------|
A|-------------1-----------1-------1-------4---4-----------6----6------------|
E|-------------------------------------2-------2--2-----4-------4--1---------|


e|-----1------------4------------1-----------2------------4------|
B|-----2------------4------------1-----------2------------4------|
G|-----3------------5------------2-----------3------------5------|
D|-----3-(x3)-------6-(x3)-------3-(x3)------4-(x1)-------6-(x1)-|
A|-----1------------6------------3-----------4------------6------|
E|-----1------------4------------1-----------2------------4------|


Share "Lay Me Down Acoustic" by Under The Influence Of Giants


TOP 10 TABS

FRESH NEW TABS

ALL ARTISTS
artist wiki

mp3bear.com
song lyrics / contact us / privacy policy / tabspace toolbar
Copyright 2004 - 2014 TabSpace.com - All Rights Reserved.
song: lay me down acoustic guitar tabs by under the influence of giants

0.016