:: Guitar & Bass Tabs Make Home Page
A B C D E F G H I J K L M N O P Q R S T U V W X Y Z #

  for    

On TABSPACE
Info About This Tab
Artist: Tokio Hotel
Tab Type: Guitar
Difficulty: intermediate
Rate This Tab!
Made By Dryndal - Polska

Intro:
E|-------------------------------|
B|-------------------------------|
G|-------------------------------|
D|7-7-7-7-7-7-7------------------|
A|7-7-7-7-7-7-7------------------|
E|5-5-5-5-5-5-5-4b--0-0-3b--0-0-0|x10


Zwrotka:
Vers:
Przed zwrotką gra się 1x:
Before the vers you play one time:
E|---------------------------------------------------------------|
B|---------------------------------------------------------------|
G|7---7-4---4-4-4-7---7-4---4-4-4-7---7-4---4-4-4----------------|
D|7---7-4---4-4-4-7---7-4---4-4-4-7---7-4---4-4-4-4-4-4-4-4-4-4-4|
A|5---5-2---2-2-2-5---5-2---2-2-2-5---5-2---2-2-2-4-4-4-4-4-4-4-4|
E|------------------------------------------------2-2-2-2-2-2-2-2|x1

Ab heute sind die Tage nur noch halb so lang...
E|---------------------------------------------------------------|
B|---------------------------------------------------------------|
G|7---7-4---4-4-4-7---7-4---4-4-4-7---7-4---4-4-4----------------|
D|7---7-4---4-4-4-7---7-4---4-4-4-7---7-4---4-4-4-4-4-4-4-4-4-4-4|
A|5---5-2---2-2-2-5---5-2---2-2-2-5---5-2---2-2-2-4-4-4-4-4-4-4-4|
E|------------------------------------------------2-2-2-2-2-2-2-2|x3

´tschuldigung Ich hab mal eben nachgedacht...
E|---------------------------------------------------------------|
B|---------------------------------------------------------------|
G|7---7-4---4-4-4-7---7-4---4-4-4-7---7-4---4-4-4----------------|
D|7---7-4---4-4-4-7---7-4---4-4-4-7---7-4---4-4-4-4--------------|
A|5---5-2---2-2-2-5---5-2---2-2-2-5---5-2---2-2-2-4--------------|
E|------------------------------------------------2--------------|x1


Refren:
Chorus:
E|---------------------------------------------------------------|
B|---------------------------------------------------------------|
G|--------------------------------7-7-7-7-7-7-7-7-7-7-7-7-7-7-7-7|
D|7-7-7-7-7-7-7-7-7-7-7-7-7-7-7-7-7-7-7-7-7-7-7-7-7-7-7-7-7-7-7-7|
A|7-7-7-7-7-7-7-7-7-7-7-7-7-7-7-7-5-5-5-5-5-5-5-5-4-4-4-4-4-4-4-4|
E|5-5-5-5-5-5-5-5-4-4-4-4-4-4-4-4--------------------------------|

E|---------------------------------------------------------------|
B|---------------------------------------------------------------|
G|--------------------------------7-7-7-7-7-7-7-7-7-7-7-7-7-7-7-7|
D|7-7-7-7-7-7-7-7-7-7-7-7-7-7-7-7-7-7-7-7-7-7-7-7-7-7-7-7-7-7-7-7|
A|7-7-7-7-7-7-7-7-7-7-7-7-7-7-7-7-5-5-5-5-5-5-5-5-4-4-4-5-5-5-5-5|
E|5-5-5-5-5-5-5-5-4-4-4-4-4-4-4-4--------------------------------|

E|---------------------------------------------------------------|
B|---------------------------------------------------------------|
G|--------------------------------7-7-7-7-7-7-7-7-7-7-7-7-7-7-7-7|
D|7-7-7-7-7-7-7-7-7-7-7-7-7-7-7-7-7-7-7-7-7-7-7-7-7-7-7-7-7-7-7-7|
A|7-7-7-7-7-7-7-7-7-7-7-7-7-7-7-7-5-5-5-5-5-5-5-5-4-4-4-4-4-4-4-4|
E|5-5-5-5-5-5-5-5-4-4-4-4-4-4-4-4--------------------------------|

E|---------------------------------------------------------------|
B|---------------------------------------------------------------|
G|---------------------------------------------------------------|
D|4-4-4-4-4-4-4-4-2-2-2-2-2-2-2-2-3-3-3-3-3-3-3-3-5-5-5-5-5-5-5-5|
A|4-4-4-4-4-4-4-4-2-2-2-2-2-2-2-2-3-3-3-3-3-3-3-3-5-5-5-5-5-5-5-5|
E|2-2-2-2-2-2-2-2-0-0-0-0-0-0-0-0-1-1-1-1-1-1-1-1-3-3-3-3-3-3-3-3|


Poten się powtarza...
Then in this order...
Intro x2
Zwrotka x1 (Vers x1)
Refren x1 (Chorus x1)


Przejście:
Interlude:
Die Zeit läuft...
E|---------------------------------------------------------------|
B|---------------------------------------------------------------|
G|7-7-7-7-7-7-7-7-7-7-7-7-7-7-7-7-7-7-7-7-7-7-7-7-7-7-7-7-7-7-7-7|
D|7-7-7-7-7-7-7-7-7-7-7-7-7-7-7-7-7-7-7-7-7-7-7-7-7-7-7-7-7-7-7-7|
A|5-5-5-5-5-5-5-5-5-5-5-5-5-5-5-5-4-4-4-4-4-4-4-4-4-4-4-4-4-4-4-4|
E|---------------------------------------------------------------|

E|---------------------------------------------------------------|
B|---------------------------------------------------------------|
G|9-9-9-9-9-9-9-9-9-9-9-9-9-9-9-9-3-3-3-3-3-3-3-3-5-5-5-5-5-5-5-5|
D|9-9-9-9-9-9-9-9-9-9-9-9-9-9-9-9-3-3-3-3-3-3-3-3-5-5-5-5-5-5-5-5|
A|7-7-7-7-7-7-7-7-7-7-7-7-7-7-7-7-1-1-1-1-1-1-1-1-3-3-3-3-3-3-3-3|
E|---------------------------------------------------------------|


Intro x5
Refren x1 (Chorus x1)
Intro x4 - z czego za 4-tym razem kończy się: The last part:
E|-------------------------------|
B|-------------------------------|
G|-------------------------------|
D|7-7-7-7-7-7-7------------------|
A|7-7-7-7-7-7-7------------------|
E|5-5-5-5-5-5-5-4b--0-0-3b-------|


To na tyle :D
Thats that :D


Share "Leb Die Sekunde" by Tokio Hotel


TOP 10 TABS

FRESH NEW TABS

ALL ARTISTS
artist wiki

mp3bear.com
song lyrics / contact us / privacy policy / tabspace toolbar
Copyright © 2004 - 2014 TabSpace.com - All Rights Reserved.
song: leb die sekunde guitar tabs by tokio hotel

0.022