:: Guitar & Bass Tabs Make Home Page
A B C D E F G H I J K L M N O P Q R S T U V W X Y Z #

  for    

On TABSPACE
Info About This Tab
Artist: Margot And The Nuclear So And Sos
Tab Type: Guitar
Difficulty: novice
Rate This Tab!
----------------------------------------------------------------------------
	 Let's Paint Our Teeth Green - Margot and the Nuclear So and So's
----------------------------------------------------------------------------
This is my interpretation of the song "Let's Paint Our Teeth Green" by Margot
and the Nuclear So and So's. This is just the rhythm guitar. I couldn't figure
out the little lead guitar part during the chorus. If someone figures it out 
before me just send a message through the comments section and I will make a
correction. Rate and comment please.  

Tabbed by:Jon Green
Tuning:Standard

*=Palm Mute
~= Let Ring

Intro:
e|--------------------------|
B|--------------------------|
G|--------------------------|  x2
D|-77777777--22222222-------|
A|-77777777--22222222-------|
E|-55555555--00000000-------|


Verse 1:
e|--------------------------|
B|--------------------------|
G|--------------------------|  x4
D|-77777777--22222222-------|
A|-77777777--22222222-------|
E|-55555555--00000000-------|
   ********  ********
"Somebody is being bitchy"

Chorus:
e|--------------------------|
B|--------------------------|
G|--------------------------|  x4
D|-77777777--22222222-------|
A|-77777777--22222222-------|
E|-55555555--00000000-------|
"Let's paint our teeth green"

Verse 2:
e|--------------------------|
B|--------------------------|
G|--------------------------|  x4
D|-77777777--22222222-------|
A|-77777777--22222222-------|
E|-55555555--00000000-------|
   ********  ********

Chorus:
e|--------------------------|
B|--------------------------|
G|--------------------------|  x4
D|-77777777--22222222-------|
A|-77777777--22222222-------|
E|-55555555--00000000-------|
"Let's move to Utah"

Bridge:
e|--------------------------|
B|--------------------------|
G|-55-3333------------------|  x4
D|-55-3333-2~--4/-5~--------|
A|-33-1111-2~--4/-5~--------|
E|---------0~--2/-3~--------|
"I want to be the voice"

e|-------------|
B|-------------|
G|-5555555-----|
D|-5555555-----|
A|-3333333-----|
E|-------------|

Interlude:
e|------------|
B|------------|
G|------------|  x4
D|-5/-7---2---|
A|-5/-7---2---|
E|-3/-5---0---|

Chorus:
e|--------------------------|
B|--------------------------|
G|--------------------------|  x4
D|-77777777--22222222-------|
A|-77777777--22222222-------|
E|-55555555--00000000-------|
"Let's paint our teeth green"

Ending:
e|--------------------------|
B|--------------------------|
G|-55-3333------------------|  x4
D|-55-3333-2~--4/-5~--------|
A|-33-1111-2~--4/-5~--------|
E|---------0~--2/-3~--------|

e|------------|
B|------------|
G|-55-3333----| 
D|-55-3333----|
A|-33-1111----|
E|------------|


Share "Lets Paint Our Teeth Green" by Margot And The Nuclear So And Sos


TOP 10 TABS

FRESH NEW TABS

ALL ARTISTS
artist wiki

mp3bear.com
song lyrics / contact us / privacy policy / tabspace toolbar
Copyright 2004 - 2014 TabSpace.com - All Rights Reserved.
song: lets paint our teeth green guitar tabs by margot and the nuclear so and sos

0.035