:: Guitar & Bass Tabs Make Home Page
A B C D E F G H I J K L M N O P Q R S T U V W X Y Z #

  for    

On TABSPACE
Info About This Tab
Artist: Evanescence
Tab Type: Bass
Difficulty: novice
Rate This Tab!
Lithium

Chorus- play slowly

G---------------------------------------------------------------------|
D---------------------------------------------------------------3-----|
A--1-------------1------------------------------1-----------------1---|
E----4--2--4--------4--2--4------1---4--2--4-------4---2---4----------|

Heavy Guitar part
G----------------|
D----------------|
A---1-1-1-1-0----|    repeat
E----------------|

1st verse

G---------------------------------------|
D---------------------------------------|   X2
A--1--------------1---------------------|
E-------2----4--------------------------|

Bridge

G-----------------------------------------------------------------|
D-----------------------------------------------------------------|
A----1-1-1-1------------1-1-1-1-----------------------------------|
E--------------2-2-2-2----------2--2-2-2--------------------------|

Chorus-

G---------------------------------------------------------------------|
D---------------------------------------------------------------3-----|
A--1-------------1------------------------------1-----------------1---|
E----4--2--4--------4--2--4------1---4--2--4-------4---2---4----------|


2nd Verse

G--------------------------------------------------------|
D--------------------------------------------------------|
A--------------------------------------------------------|
E--4-4-4-4-0-1-1-1-1----2-2-2-2-1-1-1-1-2-2-2-2-1-1-1-1--|

G--------------------------------------------------------|
D--------------------------------------------------------|
A--------------------------------------------------------|
E--2-2-2-2-1-1-1-1-2-2-2-2----4--------------------------|

3rd verse

G---------------------------------------|
D---------------------------------------|   X2
A--1--------------1---------------------|
E-------2----4--------------------------|

Bridge

G-----------------------------------------------------------------|
D-----------------------------------------------------------------|
A----1-1-1-1------------1-1-1-1-----------------------------------|
E--------------2-2-2-2----------2--2-2-2--------------------------|

Chorus-

G---------------------------------------------------------------------|
D---------------------------------------------------------------3-----|
A--1-------------1------------------------------1-----------------1---|
E----4--2--4--------4--2--4------1---4--2--4-------4---2---4----------|


That should be the whole thing, it's only basic, but you can see which frets you should be hitting.

Amy comments or alterations... jacquieliv@hotmail.com


Share "Lithium" by Evanescence


TOP 10 TABS

FRESH NEW TABS

ALL ARTISTS
artist wiki

mp3bear.com
song lyrics / contact us / privacy policy / tabspace toolbar
Copyright 2004 - 2014 TabSpace.com - All Rights Reserved.
song: lithium bass tabs by evanescence

0.028