:: Guitar & Bass Tabs Make Home Page
A B C D E F G H I J K L M N O P Q R S T U V W X Y Z #

  for    

On TABSPACE
Info About This Tab
Artist: Tesla
Tab Type: Bass
Difficulty: novice
Rate This Tab!
Well, I just found out theres to versions of this song, one with an acoustic
and one without, so the times in the parenthesis are for the version without the 
intro

Intro    :59 (:04)
G|-9-7------------7h9-7-|
D|-----9-7----7h9-------|
A|----------------------|
E|----------------------|

Pre-Verse    1:04 (:10)                x2
G|-7---|-----------------7-777-777-777---|--------7h9-14/-|
D|---9-|-7-777-777-777-9---------------9-|-/7-7h9---------|
A|-----|---------------------------------|----------------|
E|-----|---------------------------------|----------------|

Verse 1    1:15 (:21)            x4
G|-----------------7-777-777-777---|
D|-7-777-777-777-9---------------9-|
A|---------------------------------|
E|---------------------------------|

Chorus    1:37 (:42)
G|------7-------------------7--------------------------------------------------|
D|-5---------7--77-7-7-5---------5-7-5-7--7----2--2--22--2--5--5--55--5--7--7--|
A|-----------------------------------------------------------------------------|
E|-----------------------------------------------------------------------------|

G|------------9--7-------7-|
D|-77-7-7-7--------9-7h9---|
A|-------------------------|
E|-------------------------|

Pre-Verse    1:58 (1:04)         x2
G|-----------------7-777-777-777---|--------7h9-14-|
D|-7-777-777-777-9---------------9-|-/7-7h9--------|
A|---------------------------------|---------------|
E|---------------------------------|---------------|

Verse 2    2:09 (1:14)           x4
G|-----------------7-777-777-777---|
D|-7-777-777-777-9---------------9-|
A|---------------------------------|
E|---------------------------------|

Chorus    2:30 (1:35)
G|------7-------------------7--------------------------------------------------|
D|-5---------7--77-7-7-5---------5-7-5-7-5h7-----2-2-2-2-2-22-2-2-2-5-5-5-5-55-|
A|-----------------------------------------------------------------------------|
E|-----------------------------------------------------------------------------|

G|-----------------------------7-----------------------------------------------|
D|-5-5-5-7-7-7-7-7-77-7-7-7--------7-2-2-2-2-2-22-2-2-2-5-5-5-5-5-55-5-5-5--7--|
A|-----------------------------------------------------------------------------|
E|-----------------------------------------------------------------------------|

G|-------------------9--7-------7-|
D|-7-7-7-7-77-7-7-7-------9-7h9---|
A|--------------------------------|
E|--------------------------------|

Solo    3:02 (2:08)              x4
G|-----------------7-777-777-777---|
D|-7-777-777-777-9---------------9-|
A|---------------------------------|
E|---------------------------------|

Chorus    3:23 (2:29)
G|------7-7----------------7---------------------------------------------------|
D|-5-5-------7--77-7-7-5--------5-7-5-7--5-7-5-7---2---2/10---5----55--57---77-|
A|-----------------------------------------------------------------------------|
E|-----------------------------------------------------------------------------|

G|---7--------------------/9-7-------------------------------|
D|-------7----2----2----5------10-9-7----77----22-2/77-7-12/-|
A|-----------------------------------------------------------|
E|-----------------------------------------------------------|

Fill    3:59 (3:05)
G|-9-7-----------7h9-7-|
D|-----9-7---7h9-------|
A|---------------------|
E|---------------------|

Outro   4:06 (3:12)              x5
G|-----------------7-777-777-777---|-----------------7-777-777-------7------|
D|-7-777-777-777-9---------------9-|-7-777-777-777-9------------5---------7-|
A|---------------------------------|----------------------------------------|
E|---------------------------------|----------------------------------------|


Share "Little Suzi" by Tesla


TOP 10 TABS

FRESH NEW TABS

ALL ARTISTS
artist wiki

mp3bear.com
song lyrics / contact us / privacy policy / tabspace toolbar
Copyright 2004 - 2014 TabSpace.com - All Rights Reserved.
song: little suzi bass tabs by tesla

0.019