:: Guitar & Bass Tabs Make Home Page
A B C D E F G H I J K L M N O P Q R S T U V W X Y Z #

  for    

On TABSPACE
Info About This Tab
Artist: Hard-fi
Tab Type: Bass
Difficulty: intermediate
Rate This Tab!
No one's tabbed this song so i figured i may as well have a go!

Intro/Chorus
G------12-12-10-10--------------------------------------------12-12-10-10----|
D------------------12-------12-12-10-10--------12-10----------------------12-|
A10-10----------------------------------13--------------10-10----------------|
E---------------------11-11----------------8-8-------13----------------------|

Verse
G-------------------------------------------------------------------------|
D-------------------------------------------------------------------------|
A10101010101010101010101010101010-----------------------------------------|
E--------------------------------1111111111111111111111111111111188888888-|
          (10's, not 1-0's)              (11's, not 1's)

G----------------------------------------------------------|
D----------------------------------------------------------|         then repeat
A----------------10101010101010101010101010101010----------|
E1313131313131313------------------------------------------|
    (13's not 1-3's)       (10's not 1-0's)

Pre-Chorus
G-----------------------------------------|
D-----------------------------------------|
A------------------------1010101010101010-|
E888888881313131313131313-----------------|
           (13's again)     (10's)

G----------------------------------------|
D----------------------------------------|
A----------------------------------------|
E8888888813131313131313131010101010101010
           (13's)     (10's)

Bass/ Drum/ Keyboard soloy thingy
G0--00---------------------------------------|
D------3--1--11-0----------------------------|          repeat etc.
A------------------3--33-1-------------------|
E--------------------------3--33-1-----------|

Order is pretty self-explanatory when you listen to the song, enjoy playing!


Share "Living For The Weekend" by Hard-fi


TOP 10 TABS

FRESH NEW TABS

ALL ARTISTS
artist wiki

mp3bear.com
song lyrics / contact us / privacy policy / tabspace toolbar
Copyright 2004 - 2014 TabSpace.com - All Rights Reserved.
song: living for the weekend bass tabs by hard-fi

0.01