:: Guitar & Bass Tabs Make Home Page
A B C D E F G H I J K L M N O P Q R S T U V W X Y Z #

  for    

On TABSPACE
Info About This Tab
Artist: Evanescence
Tab Type: Bass
Difficulty: novice
Rate This Tab!
Chorus:
G|-----------------------------|
D|-----------------------------|
A|-----------------------------|x2
E|----0/2--00xx0--2/3--22xx2---|

verse:
G|---------------------------------------------|
D|---------------------------------------------|
A|---------------------------------------------|x6
E|--3-3-33-3--3-3-3-33-3--3-2-2-22-2-0-2-2-22-2|

chorus

bridge:
G|----------------------|
D|----------------------|
A|----------------------|
E|---7--4--7--4--7--4---|

G|-----------------------------------------------------------------------------|
D|-----------------------------------------------------------------------------|
A|-----------------------------------------------------------------------------|
E|7777444444477774444444777744444447777444444777744444447777444444477774444444-|

outro:
G|----------------------|
D|----------------------|
A|----------------------| until end
E|---3--2--3--2--3--2---|


Share "Lose Control" by Evanescence


TOP 10 TABS

FRESH NEW TABS

ALL ARTISTS
artist wiki

mp3bear.com
song lyrics / contact us / privacy policy / tabspace toolbar
Copyright 2004 - 2014 TabSpace.com - All Rights Reserved.
song: lose control bass tabs by evanescence

0.021